Acordes de Guitarra » S »Supersubmarina » Cometas (Tab)
  • Letra y Acordes
    e-------------------------------
    B-------------------------------
    G--9----7----10----7----9-7------
    D--9----7----10----7----9-7------
    A--7----5----8-----5----7-5------
    E-------------------------------
    
    
    Segunda guitarra
       C        C/D     C/F    C/D     C  /D
    e--0--------------------------------------
    B--1--------------------------------------
    G--0-0-0---0-0-0---0-0-0---0-0-0---0--0---
    D--2-2-2---0-0-0---3-3-3---0-0-0---2--0---
    A--3-3-3---3-3-3---3-3-3---3-3-3---3--3---
    E-----------------------------------------
    
    C
    Vuelo entre las piedras del espacio
      C/B             Am
    
  • +
    ¡Colabora con nosotros!
    Envíanos tu versión de esta canción

Letra de Cometas
Segunda guitarra
Vuelo entre las piedras del espacio
Tropiezo al despegar, tropiezo al despegar
Las pusieron todas a mi paso
Me quieren derribar, me quieren derribar
Lo que digan y la verdad son lineas paralelas
Que nunca convergirán, van en dirección opuesta
No quieren que vaya a rescatarte
Nos quieren separar, nos quieren separar
Cuando el tiempo haga de juez y dicte lo que hay que hacer
Volveremos a brillar con toda la intensidad
Haciendo de nuestras vidas dos cometas
Que giran volando rápido entre planetas
Batiendo las alas alto, esquivando estrellas
Dejando en el universo nuestras estelas
Hasta el Sol, hasta el Sol, hasta el Sol
(que nadie pueda nunca separarnos)
(que nadie pueda nunca separarnos)
(que nadie pueda nunca separarnos)
Ella da la vuelta y voy sangrando
nadie me va a curar, nadie me va a curar
y en mi sacramento voy rezando
nadie me va a escuchar, nadie me va a escuchar
Cuando el cielo vuelva a arder justo antes de atardecer
Volveremos a brillar en toda su inmensidad
Haciendo de nuestras vidas dos cometas
Que giran volando rápido entre planetas
Batiendo las alas alto, esquivando estrellas
Dejando en el universo nuestras estelas
Hasta el Sol, hasta el Sol, hasta el Sol
(que nadie pueda nunca separarnos)
(que nadie pueda nunca separarnos)
(que nadie pueda nunca separarnos)



© LaCuerda.net · aviso legal · privacidad · contacto