Acordes de Guitarra » S »Superlitio » Sexo con amor (Tab)

Sexo con amor
Superlitio

Letras, Acordes y Tabs para Guitarra, Bajo y Ukulele

  • Nuevamente yo molestando por aquí,
    esta vez añado a la partitura anterior
    de SEXO CON AMOR unos acordes que logre
    conseguir gracias a un personaje.
    Y AQUI LES DEJO
    
    VERSOS
    GUITARRA 1 (X4)
    I-----18------------------------------I
    I---18--18----18-16-14-11-11/14-11----I
    I-------------------------------------I
    I-------------------------------------I
    I-------------------------------------I
    I-------------------------------------I
    PRECORO
    GUITARRA 1 (X2)
    I--666--998-666--998-666--998-666--9999—I
    I--666--999-666--999-666--999-666--9999—I
    I---------------------------------------I
    I---------------------------------------I
    I---------------------------------------I
    I---------------------------------------I
    
    I--6--9-6--6-9-6------------------------I
    I--6--9-6--------9-6--------------------I
    I----------------------8///-3-----------I
    I---------------------------------------I
    I---------------------------------------I
    I---------------------------------------I
    CORO:
    Organeta=
    I----------------------
  • El siguiente ritmo se mantiene durante las estrofas
    
    |--------------------------------------|
    |--------------------------------------|
    |--------4--4--------4--4--------4--4--|
    |--6--6--------6--6--------6--6--------|
    
    Antes del coro:
    
    "Sin amor no se puede despejar la evolución...."
    
    |---------------------------------------------------------|
    |---------------------------------------------------------|
    |---------------------------------------------------------|
    |--6----6--6----6----6--6----6----6--6----6----6--6----6--|
    
    Coro:
    
    |--------------------------------------------------|
    |--------------------------------------------------|
    |--6--6--------8--8--4--4--6--6--------------------|
    |--------4--4--------------------4--4--6--6--6666--|
    
    
    Transcrito por: Luis Alejandro Herrera
    @lherreradz
  • +
    ¡Colabora con nosotros!
    Envíanos tu versión de esta canción



Video de Sexo con amor
[]




[Sexo con amor chords][Sexo con amor cifra]
© LaCuerda.net · aviso legal · privacidad · es · en · pt · contacto