Acordes de Guitarra » S »Los Superlamas » En realidad (Tab)

En realidad
Los Superlamas

  • Tablatura
    e ------------------------------------------------------------------------------
    B -------7--5--7--7/8---8-7-5----5-----5---5/7--7/5/8-----5----5--7/8--7/5/8----
    G ---5/7--7-------------------5/7--5/7---6-------------5/7--5/7--6--------------
    D ------------------------------------------------------------------------------
    A ------------------------------------------------------------------------------
    E ------------------------------------------------------------------------------
    
    e---7/9/7--------------------
    B---7/9/7--------------------
    G----------------------------
    D----------------------------
    A----------------------------
    E----------------------------
    
            D                       Em
    En realidad, solo queria felicitarte ya lo vez
             A7                        D   A7
    por tu nuevo amor, y que sigan adelante
             D                           Em  
    En realidad, todas mis cartas eran broma es verdad,
    
  • +
    ¡Colabora con nosotros!
    Envíanos tu versión de esta canción

Letra de En realidad
En realidad, solo queria felicitarte ya lo vez
por tu nuevo amor, y que sigan adelante
En realidad, todas mis cartas eran broma es verdad,
y mis palabras, fueron solo soledad
En realidad, yo ya tengo quien me quiera
lejos de aqui, lejos de todo, lejos de ti
'Olvida lo que dije un dia de ti
dije que te queria solo menti
jugue contigo ya lo vez
Olvida ya la tarde que te ame
tirados en la arena que yo ya olvide
y se feliz como debes de ser
y olvidate de mi'

En realidad, tube muchas veces la oportunidad
de confesarte lo que no senti jamas,
en realidad, eres todo lo que yo llegue a soñar
pero es muy tarde, y ahora tengo que callar
En realidad sera dificil olvidarte,
nunca sabras, que yo te quice mucho en realidad
'Olvida lo que dije un dia de ti
dije que te queria solo menti
jugue contigo ya lo vez
Olvida ya la tarde que te ame
tirados en la arena que yo ya olvide
y se feliz como debes de ser
y olvidate de mi.
El coro se repite una vez mas



© LaCuerda.net · aviso legal · privacidad · contacto
DINAMICO