Acordes de Guitarra » S »Superchería » Arbol (Tab)
  • Tablatura
    ---12--10----------------------------------------------------------------
    -----------12---10--------10---12-----------10--------------------------
    ---------------------11------------9---11--------9b10b9---7---7---7---7-
    -0---0---0----0----0----0----0---0---0----0----0--------0---0---0---0---
    ------------------------------------------------------------------------
    ------------------------------------------------------------------------
    
    ---12---10---------------------------------------------------------------
    -----------12---10--------10---12------------10--------------------------
    ---------------------11-------------9---11--------9b10b9---7---7---7---7-
    -0---0---0----0----0----0----0----0---0----0----0--------0---0---0---0---
    -------------------------------------------------------------------------
    -------------------------------------------------------------------------
    
    -----------3---2---------------0---------------0-------------|
    ---------------------------3-------3-------3-------3---------|
    ---4---2-----------2/43----------------3---------------------|
    -0---0---0---0---0-------0---0---0---0---0---0---0-----------|
    -----------------------------------------------------0-------|
    -------------------------------------------------------------|
    
  • +
    ¡Colabora con nosotros!
    Envíanos tu versión de esta canción

Letra de Arbol
riff 1
sobre riff 1
Árbol, se quema
y arde, se cae.
A este árbol nadie lo va a levantar.
Tierra, se quiebra,
se abre y se cae.
A este suelo nadie lo va a caminar.
Todo se derrumbara en mí
si esto sigue así.
Todo se derrumbara en mí
si esto sigue así.
Uh, Nadar solo,
o ahogarme en ese río.
Pregúntame
si algún secreto cuido
para vos.
Árbol, se quema
y arde, se cae.
A este árbol nadie lo va a levantar.
Todo se derrumbara en mí
si esto sigue así.
Todo se derrumbara en mí
si esto sigue así.
Uh, Nadar solo,
o ahogarme en ese río.
Pregúntame
si algún secreto cuido
O nadar con vos,
desnudos en el río.
Sabes muy bien
que no hay secretos míos
para vos
Coda
-5- -0-
-3- -3-
-3- -0-
-0- -2-
-x- -3-
-x- -x-
Links:
http://www.supercheriarock.com.ar
http://www.supercheria.bandcamp.com
http://www.youtube.com/supercheriarock
http://www.twitter.com/supercheria
http://www.myspace.com/supercheria



© LaCuerda.net · aviso legal · privacidad · contacto
DINAMICO