Acordes de Guitarra » S »Steve Green » Toma la cruz (Tab)

Toma la cruz
Steve Green

Letras, Acordes y Tabs para Guitarra, Bajo y Ukulele

  •         D                     B7
    En la cruz con Cristo estoy
      Em             A                    D      G  A
    Y ya no vivo yo, Cristo ahora vive en mí.
            D                     B7
    En la cruz con Cristo estoy
      Em             A                    D
    Y ya no vivo yo, Cristo ahora vive en mí.
    
    (2 voces)
    
            D                     B7
    En la cruz con Cristo estoy
      Em             A                    D      G  A
    Y ya no vivo yo, Cristo ahora vive en mí.
            D                     B7
    En la cruz con Cristo estoy
      Em             A                    D
    Y ya no vivo yo, Cristo ahora vive en mí.
    
    
  • E-----3---------3----3--2--0---------------------------------------
    B------------0----------------0-------------3-----------2----------
    G---------0----------4--2--0----------------2-----------2----------
    D-----2--------------------------------0-------------2-------------
    A-------------------------------------------------0----------------
    E------------------------------------3-----------------------------
       y  ya  no  vivo  yo,             Cristo ahora  vive  en
    
    
    E---2--------------7----9----|-------10--------------10/12--10---7-
    B---3-----3--------8--8h10---|-------10------10------------------7-
    G------2-----2---------------|-----------11-----11-----------------
    D---0------------------------|-------0-----------------------------
    A----------------------------|-----------------------------------6-
    E----------------------------|-------------------------------------
      MI.                         En LA Cruz con Cristo estoy,
    
    
    E-------------10----------------------------0----------------------
    B--------7/8-------8--7--5---------------3-----2-------------------
    
  • +
    ¡Colabora con nosotros!
    Envíanos tu versión de esta canción

Letra de Toma la cruz
En la cruz con Cristo estoy
Y ya no vivo yo, Cristo ahora vive en mí.
En la cruz con Cristo estoy
Y ya no vivo yo, Cristo ahora vive en mí.
(2 voces)
En la cruz con Cristo estoy
Y ya no vivo yo, Cristo ahora vive en mí.
En la cruz con Cristo estoy
Y ya no vivo yo, Cristo ahora vive en mí.
Toma la Cruz, la cruz de Cristo,
Un precio habrá: Todo dar a Dios.
Tu Sacrificio, verás, es muy pequeño
Al lado de riquezas que Cristo nos guardo.
Toma el amor, la Cruz requiere,
Asid a Dios, el cual por ti sufrió;
Recibirás la compasión de Cristo,
Él es quien moldea tu corazón a Dios.
Preciosa Cruz descansamos en ti,
Dios haznos más valientes
Para enfrentar la vergüenza y el mal,
Que a hombros tú cargaste.
Toma el vivir que hay en la muerte,
Pisando allí donde por ti pisó;
Termina el Calvario en una tumba
Vacía y por tanto, tu cruz soporta ya.
Toma la Cruz, toma la cruz, La Cruz de Cri- i - isto.
Esperas 3 tiempos y empiezas con esto:




[Toma la cruz chords][Toma la cruz cifra]
© LaCuerda.net · aviso legal · privacidad · es · en · pt · contacto
DINAMICO