Acordes de Guitarra » S »Los Stereotrips » Ctrl+alt+supr (Tab)

Ctrl+alt+supr
Los Stereotrips

Letras, Acordes y Tabs para Guitarra, Bajo y Ukulele

  • |----------------||----------------------------|
    |-9-9-9-9---9-12-||--14-14-14-14---14-12-------|
    |-9-9-9-9---9-12-||--14-14-14-14---14-12-------|
    |-9-9-9-9---9-12-||--14-14-14-14---14-12-------|
    |-7-7-7-7---7-10-||--12-12-12-12---12-10-------|
    |----------------||----------------------------|
    
    
    |----------------|
    |-9-9-9-9---9-12-|
    |-9-9-9-9---9-12-|
    |-9-9-9-9---9-12-|
    |-7-7-7-7---7-10-|
    |----------------|
    
    |------------------------|
    |-9-9-9-9---9-12-9-12-9/-|
    |-9-9-9-9---9-12-9-12-9/-|
    |-9-9-9-9---9-12-9-12-9/-|
    |-7-7-7-7---7-10-7-10-7/-|
    
  • |------------------------------------------------|
    |------------------------------------------------|
    |-(16) ^-14 ---12-14-12--14^--^14-14-12--12-11---|
    |------------------------------------------------|
    |------------------------------------------------|
    |------------------------------------------------|
    
    |---------------------------------|
    |---------------------------------|
    |-----12-14^14--12-14-12-14-------|
    |12-14----------------------------|
    |---------------------------------|
    |---------------------------------|
    
    |---------------------------------|
    |---------------------------------|
    |-12-14^14--12-14-12--14-12-------|
    |---------------------------------|
    |---------------------------------|
    |---------------------------------|
    
  • +
    ¡Colabora con nosotros!
    Envíanos tu versión de esta canción

Letra de Ctrl+alt+supr
Bass intro
|-0--0--0--0--0--0--0--0-3--5--5--5--5--5--5--5--5-3--|
|-0-0-0-0-0-0-0-0-3--0-0-0-0-0-0-0-0-3-0-3-0--|
Tengo que pensar q hoy es un nuevo dia
yo se que suena a tontería ´
Pero por algo me tengo que despertar
abrir los ojos a a ver q seria
si tengo mas de una vida
y asi no me mato
Y pasar yo se q no es normal tengo q despertarme hoy
Aunque dee miedo y quiera borrar la huella del paso hoy
Quisiera dar un salto
Saber q si despierto pueda q me vea perdido
Saber q si me lo decido
puedo escapar hay yo-- quiero despertarme hoy
Me quiero resetear ctrl alt sup
Repetir intro
Tengo que pensar q hoy es un nuevo dia
yo se que suena a tontería ´
Pero por algo me tengo que despertar
abrir los ojos a a ver q seria
si tengo mas de una vida
y asi no me mato
Y pasar yo se q no es normal tengo q despertarme hoy
Aunque dee miedo y quiera borrar la huella del paso hoy
Quisiera dar un salto
Saber q si despierto pueda q me vea perdido
Saber q si me lo decido
puedo escapar hay Dios quiero despertarme hoy
Me quiero resetear
Me quiero despertar
no quiero ni pensar x 2
me quiero despertar x 2
Aunq me veas como perdido
En un laberinto
se q si me lo decido
puedo escapar hay yo quiero despertarme hoy
Me quiero resetear ctrl alt sup




[Ctrl+alt+supr chords][Ctrl+alt+supr cifra]
© LaCuerda.net · aviso legal · privacidad · es · en · pt · contacto