Acordes de Guitarra » S »Standstill » Feliz en tu día (Tab)

Feliz en tu día
Standstill

Letras, Acordes y Tabs para Guitarra, Bajo y Ukulele

  • |-----------------------|  |-----------------------|
    |-----------------------|  |-----------------------|
    |-----------------------|  |-----------------------|
    |-----------------------|x2|-----------------------|x2
    |---3-------------------|  |---4-------------------|
    |---------6--5----------|  |--------6--5-----------|
    
    
    
    Gm Fm
    Gm
    Contra su voluntad
    Gm
    se abre un párpado
    Gm                   Dm Gm G#m
    al final hay un nuevo año
    Gm
    cántame una canción
    Gm               Cm Gm    G#m
    mirémoslo muy despacio
    
  • Abajo dejo la estructura de la canción,
    para aclarar qué parte hay que tocar. Saludos!
    
    Intro/Estrofa
    G-----------------------10-12------------
    D------------------10-12-----------------
    A----------------------------------------
    E---3---4-0-3---------------------2-3-5--
    
    Interludio
    G--------------
    D--------------
    A--------------
    E---3----4-3--
    
    Estribillo
    G---------------------------------
    D---------------------------7-5---
    A-6---4-6-4-6~---------5---5---5~-
    E---------------------------------
    
    Puente/Final
    G-----------------------------------------------------------------
    D-----------------------------------------------------------------
    A---------------------------------6-6-6-6-6-6-6-6-6-6-6-6-6-6-6-6-
    E---3---4-3-3---4-3-3---4-3-3---4---------------------------------
    
    Intro
    Estrofa
    Interludio
    Estrofa
    Interludio
    Estrofa
    Estribillo
    Estrofa
    Puente
    Interludio
    Estrofa
    Estribillo
    Final
  • +
    ¡Colabora con nosotros!
    Envíanos tu versión de esta canción

Letra de Feliz en tu día
Contra su voluntad
se abre un párpado
al final hay un nuevo año
cántame una canción
mirémoslo muy despacio
y esperaremos y escucharemos
saltos de llaves
y ruido de mil monedas
corriendo hacia el metro
que ya no espera
y nos deja un segundo allí
sin saber qué decir
que marche
¿No era mi día hoy?
si es que es mi día hoy
cántame una canción
bailemos entre las sábanas
y escupiremos a las estrellas
y a todas las cosas bellas
que nos creímos
como el honor de soplar la tarta
y la magia se aparta
y nos deja un segundo allí
sin saber qué decir
"que hable! que hable!"
pon el televisor por favor
pon el televisor
cántame una canción
una tuya ganador
cántame una canción
que me diga lo feliz que estoy.

Video de Feliz en tu día
[]




[Feliz en tu día chords][Feliz en tu día cifra]
© LaCuerda.net · aviso legal · privacidad · es · en · pt · contacto