Acordes de Guitarra » S »Spinetta y los Socios del Desierto » Así nunca encontrarás el mar (Tab)

Así nunca encontrarás el mar
Spinetta y los Socios del Desierto

  • Letra y Acordes
    Am7/9: x5557
    Cdim9: xx108710
    Cm7/9: x3133x
    Bb: x13331
    G7sus4: 353533
    Em7: 020030
    Dm7/9: x5355x
    Cmaj7: 8x998x
    Bm7/11: 7x755x
    Am7/11: 5x533x
    Am7/9(I): x05500
    
    Estrofa 1:
    
    Sobre:
         Am7     Cdim9       Riff A                  Riff B
    e|-7--7--10--10|--------------------|-----------------------|--|
    b|-5--5--7---7-|--------------------|-----------------------|--|
    g|-5--5--8---8-|5-7--7/9-7--5-4-5---|-----------------------|--|
    d|-5--5--10--10|5-7--7/9-7--5-4-5---|---------7-------------|x4|
    
  • Tablatura
    --7--------10-----
    --8--------10-----
    --9---------9-----
    --10--------8-----
    -(7)------9-----
    ------------------
    Sueñas y escapas,
    
    -------------------------------
    -------------------------------
    -5-7--9-7----5---4--4----------
    -5-7--9-7----5---4--4----------
    -------------------------7--5-----
    -------------------------------
    así nunca encontrarás el mar...
    
    
    FIG. 1
    -----------------------------------------
    -----------------------------------------
    
  • +
    ¡Colabora con nosotros!
    Envíanos tu versión de esta canción

Letra de Así nunca encontrarás el mar
Estrofa 1:
Sobre:
A|7-5--7/9--7-5|
Sueñas y escapas
así nunca encontrarás el mar
y vuelas o mueres
así nunca encontrarás la paz, no
Prendes y apagas
y el mundo es extravío
en el que nada de la luz te va
Mira las ho - jas del árbol resplandeciente, sí
Estrofa 2:
(igual)
..
Así nunca encontrarás el mar
Lloras y callas
así nunca encontrarás el mar no
(igual)
Ves la luz y el mundo impreciso
te quiere para ver en ti
así nunca encontrarás el mar
Estrofa 3:
(igual)
Sueñas y escapas
así nunca encontrarás el mar, no
Y mueres o vuelas
así nunca encontrarás la paz, no nena
(igual)
Prendes y apagas
y el mundo es extravío
en el que nada de la luz te va
mira las hojas del árbol resplandeciente
Así nunca encontrarás el mar
Y lloras o callas
así nunca encontrarás el mar



© LaCuerda.net · aviso legal · privacidad · contacto
DINAMICO