Acordes de Guitarra » S »Sonora de Llegar » Pare' Gozar (Tab)

Pare' Gozar
Sonora de Llegar

Letras, Acordes y Tabs para Guitarra, Bajo y Ukulele

  • Ta' que se revienta el higado..
    
    G|--------------------------------------------|
    D|--------------------------------------------|  x2
    A|-5-5-5-5-5-5---47-47-47-47-47-47-47-47-5-5--|
    E|--5-5-5-5-5-5-5--5--5--5--5--5--5--5----5-5-|
    
    Y Sigue robando el alcalde..
    
    G|--------------------------|
    D|--------------------------| x3
    A|-10--10--10--10---5-5-5-5-|
    E|---10--10--10--10--5-5-5-5|
    
    G|----------------------------------|
    D|----------------------7-7---------|
    A|-10--10--10--10---5-5--7-7-5-5-5-5|
    E|---10--10--10--10--5-5------5-5-5-|
    
                          Guatita llena contento el corazon..
    
    G|--------------------------------------------|
    D|--------------------------------------------|
    A|-5-5-5-5-5-5---47-47-47-47-47-47-47-47-5-5--|
    E|--5-5-5-5-5-5-5--5--5--5--5--5--5--5----5-5-|
    
    Y Sigue robando el alcalde..
    
    G|--------------------------|
    D|--------------------------| x3
    A|-10--10--10--10---5-5-5-5-|
    E|---10--10--10--10--5-5-5-5|
    
    G|----------------------------------|
    D|-----------------
  • +
    ¡Colabora con nosotros!
    Envíanos tu versión de esta canción






[Pare' Gozar chords][Pare' Gozar cifra]
© LaCuerda.net · aviso legal · privacidad · es · en · pt · contacto
DINAMICO