Tablatura de Sombras: La Ventanita
Sombras  corregir
desconocido
INTRO

e|---------------------------------------|
B|-----------------5---8---7---5---7-----|
G|------7---6---7------------------------|
D|---7--------------------------------7--|
A|---------------------------------------|
E|---------------------------------------|

e|---------------------------------------|
B|-----------------5---8---7---5---7-----|
G|------7---6---7---------------------4--|
D|---7-----------------------------------|
A|---------------------------------------|
E|---------------------------------------|

e|-----------------5---------------------|
B|-----5--4--5--7-----8--7--8--5---------|
G|--4------------------------------------|
D|---------------------------------------|
A|---------------------------------------|
E|---------------------------------------|

e|------------------7--------------------|
B|-----8--7--8--10-----10--9--10---9s12--|
G|--7------------------------------------|
D|---------------------------------------|
A|---------------------------------------|
E|---------------------------------------|


e|---------------------------------------|
B|---12--12--12--11-11-11--9----9--------|
G|---------------------------11---11-----|
D|---------------------------------------|
A|---------------------------------------|
E|---------------------------------------|

e|---------------------------------------|
B|-12--12--12--12--11-11-11--9----9------|
G|-----------------------------11---11---|
D|---------------------------------------|
A|---------------------------------------|
E|---------------------------------------|

e|---------------------------------------|
B|---13--13--13--12-12-12--10----10------|
G|----------------------------12---12----|
D|---------------------------------------|
A|---------------------------------------|
E|---------------------------------------|

e|------------------------------------------|
B|-14--14--14--14--13-13-13--11----11-11s14-|
G|------------------------------13----------|
D|------------------------------------------|
A|------------------------------------------|
E|------------------------------------------|

e|---------------------------------------|
B|----12--11--9--------------------------|
G|---------------------------------------|
D|---------------------------------------|
A|---------------------------------------|
E|---------------------------------------|


B G#m C#m F# E B B/A# Desde que me dejaste, la ventanita del amor de me cerro
G#m C#m F#7 B desde que me dejaste las asucenas han cambiado su color
B G#m C#m F# E B B/A# desde que me dejaste, la ventanita del amor se me cerro
G#m C#m F#7 B desde que me dejaste, no hago mas que extrañarte corazon
B F#7 B tengo el alma en pedazos
G#m ya no aguanto esta pena
C#m tanto tiempo sin verte
F#7 es como una condena
B tengo el alma en pedazos
G#m ya no aguanto esta pena
C#m tanto tiempo sin verte
F#7 es como una condena
B G#m es tan bonito tener tu cariño, yo no soy nada si no estoy contigo
C#m F#7 y tenerte siempre conmigo, soy tu abrigo en las noches de frio
B G#m es tan bonito tener tu cariño, yo no soy nada si no estoy contigo
C#m F#7 y tenerte siempre conmigo, soy tu abrigo en las noches de frio
Este fichero es trabajo propio de su transcriptor y representa su interpretación personal de la canción. El material contenido en esta página es
para exclusivo uso privado, por lo que se prohibe su reproducción o retransmisión, así como su uso para fines comerciales.
© LaCuerda.net · aviso legal · privacidad · es · en · pt · contacto