Acordes de Guitarra » S »Sombras » Dime amor (Tab)

Dime amor
Sombras

  • Tablatura
    Este es el intro de Dime Amor, espero que les sirva.
    
    e|-----------|-----------------|-------|--------------|--------|
    b|-----------|-----------6-----|-------|----------6---|--------|
    g|--7--8--7--|--7-5-5-5-----8--|-7-8-7-|-7-5-5-5----8-|-7------|
    D|-----------|-----------------|-------|--------------|---5-5--|
    A|-----------|-----------------|-------|--------------|--------|
    E|-----------|-----------------|-------|--------------|--------|
    
    
    e|-----------|--------------13-----|-----------|------------13-|
    b|--15-16-15-|-15--13-13-13----16--|--15-16-15-|-15-13-13-13---|
    g|-----------|---------------------|-----------|---------------|
    D|-----------|---------------------|-----------|---------------|
    A|-----------|---------------------|-----------|---------------|
    E|-----------|---------------------|-----------|---------------|
    
    
    e|--------------|
    b|-15-----------|
    g|----12-12-----|
    D|--------------|
    A|--------------|
    E|--------------|
    
    
    e|--8-------|--8-8--------|-10-------|--10--10------
  • +
    ¡Colabora con nosotros!
    Envíanos tu versión de esta canción





© LaCuerda.net · aviso legal · privacidad · contacto
DINAMICO