Tablatura para Bajo de Soda Stereo: Planta
Conexión · Inscripción
Letras y Acordes
Pantalla Completa
Imprimir
Versión Texto
Añadir Favorito
Otras Versiones

Mostrar Diagramas
Desfile Automático
Formato del Texto


Soda Stereo
Planta(BAJ)
calidad:
soda0443
AUTOR: Zeta Bosio, Gustavo Cerati
ALBUM: Soda Stereo
Enviado por Pablito
Intro:
G|--------------------------------------------
D|--2--2--------------------------------------
A|--------------------3--3--------------------
E|-----------3--3--------------5-----3--5--3--

G|--------------------------------------
D|--2--2--------------------------------
A|--------------------3--3--------------
E|-----------3--3--------------5--5--3--

G|--------------------------------------------
D|--2--2--------------------------------------
A|--------------------3--3--------------------
E|-----------3--3--------------5-----3--5--3--


            "Sabia savia..."
G|--------------------------------------------
D|--2--2--------------------------------------
A|--------------------3--3--------------------
E|-----------3--3--------------5-----3--5--3--

         "como oro..."
G|--------------------------------------
D|--2--2--------------------------------
A|--------------------3--3--------------
E|-----------3--3--------------5--5--3--

                            "no se que me pasa..."
G|--------------------------------------
D|--2--2--------------------------------
A|-----------------------------2--2-----
E|-----------3--3-----2--2--------------

                            "que ya no puedo volver."
G|--------------------------------------
D|--2--2--------------------------------
A|-----------------------------2--2-----
E|-----------3--3-----2--2--------------


        "al oir..."                     "al oir..."
G|-----------------------------------------------
D|-----------------------------------------------
A|-----------2--2-----4--4-----------------2--2--
E|--5--5--------------------------5--5-----------

G|--------------------------------------
D|--2--2--------------------------------
A|--------------------3--3--------------
E|-----------3--3--------------5--5--3--


        "Tanto irme por las ramas..."
G|--------------------------------------------
D|--2--2--------------------------------------
A|--------------------3--3--------------------
E|-----------3--3--------------5-----3--5--3--

        "ahora recorro..."      "no fue suficiente..."
G|--------------------------------------
D|--2--2--------------------------------
A|--------------------3--3--------------
E|-----------3--3--------------5--5--3--

"...fe"                     "una vez por semana..."
G|--------------------------------------
D|--2--2--------------------------------
A|-----------------------------2--2-----
E|-----------3--3-----2--2--------------

                                "ya no puedo volver..."
G|--------------------------------------
D|--2--2--------------------------------
A|-----------------------------2--2-----
E|-----------3--3-----2--2--------------

        "al oir..."
G|----------------------------------4-6-----------
D|-----------------------------4h6-------6-----6--
A|-----------2--2-----4--4------------------4-----
E|--5--5------------------------------------------

        "al oir..."             "Mi voz vegetal!"
G|--------------------------------------------
D|--------------------------------------------
A|-----------2--2-----4--4--4--4--------------
E|--5--5--------------------------2--2--2--2--

         "Necesito..."
G|----------------------------------------------------
D|-----------------2--2-----------------------4---4---
A|--2--2--4--2--0-----------2-0---0--2-------4---4-4--
E|------------------------------4-------2-------------
repite hasta el pre-solo

Pre-solo:
G|-----------------------------------------
D|-----------------------------------2-----
A|--------------------------------4-----4--
E|--0--0--0--2-----0--0--0--2-------------- x4 veces

Solo:
G|--------------------------9-------------------------
D|---------------------9h11-------------------4-4-4---
A|--2--2--4--2--0--/11------------0--2----------------
E|------------------------------4-------2-------------

G|------------------------------------------------
D|-----------------------2-----------------4-4-4--
A|--2--2--4--2--0--0--4--------0--2---------------
E|---------------------------4-------2------------

Final:
G|-----------------------------------------
D|-----------------------------------2-----
A|--------------------------------4-----4--
E|--0--0--0--2-----0--0--0--2--------------
repite hasta el final, termina en E.
Este fichero es trabajo propio de su transcriptor y representa su interpretación personal de la canción. El material contenido en esta página es
para exclusivo uso privado, por lo que se prohibe su reproducción o retransmisión, así como su uso para fines comerciales.
© LaCuerda.net · Aviso Legal · Privacidad