Acordes de Guitarra » S »Simón Diaz » Romance en la lejanía (Tab)

Romance en la lejanía
Simón Diaz

Letras, Acordes y Tabs para Guitarra, Bajo y Ukulele

  • Ahora con ustedes, y sin caer en el patrioterismo barato,
    una de las mejores canciones interpretadas por el Tío
    Simón Díaz. Esta misma salió en el mismísimo disco de donde
    está el mítico "Caballo viejo". Espero les guste
    
    
    Intro
    
    G ----------------|---------------|-------------|---|
    D -7--10-9-----7--|--7------------|---10--10-9--|-9-|
    A ----------7-----|-----10--10-9--|-9-----------|---|
    E ----------------|---------------|-------------|---|
    
    G ---------------|---------|--------|------|
    D ---------------|---------|--------|------|
    A -----6-7-10-9--|---7--7--|--------|------|
    E -7-9-----------|-7-------|-10--10-|-8--8-|
    
    G ------|------|--------|------|---------------|----------|
    D ------|------|--------|------|---------------|----------|
    A ------|----7-|-10--10-|-9--9-|-----6-7-10-9--|---7-(2X)-|
    E -7--7-|-5----|--------|------|-7-9-----------|-7--------|
    
    G --------|
    D -9------|
    A ---10-7-|
    E --------|
    
    "Por un caminito verde, del palenque a la quesera..."
    
    G -------|----------
  • +
    ¡Colabora con nosotros!
    Envíanos tu versión de esta canción






[Romance en la lejanía chords][Romance en la lejanía cifra]
© LaCuerda.net · aviso legal · privacidad · es · en · pt · contacto
DINAMICO