Acordes de Guitarra » S »Simón Diaz » Caballo Viejo (Tab)

Caballo Viejo
Simón Diaz

  • Letra y Acordes
    Intro: D7 Gm - A7  Dm - A#   A7 - Dm (2x)
    
         Dm               A7            Dm
    Cuando el amor llega así de esta manera
     A#                  A7
    uno no se da ni cuenta,
       Gm              A7           Gm            A7
    “El Carutal” reverdece y “El Guamachito” florece
                          Dm
    y las sogas se revientan.
    
         Dm               A7            Dm
    Cuando el amor llega así de esta manera
     A#                  A7
    uno no se da ni cuenta,
       Gm              A7           Gm            A7
    “El Carutal” reverdece y “El Guamachito” florece
                          Dm    D7   Gm
    y las sogas se revientan.
    
    
  • Tablatura
         Dm
    Cuando el amor llega así de esta manera
                        A7
    Uno no se da ni cuenta
    El carutal reverdece
            Gm            A7
    Y el  Guamachito florece
                          Dm
    Y las sogas se revientan
    (Se repite)
    
    Gm                                             Dm
    Caballo le dan Sabana porque esta  viejo y cansao
                                                 A7
    Pero no se dan de cuenta que un corazón amarrao
                                                   Dm
    Cuando le sueltan las riendas en caballo desbocao
    
    Gm                                             Dm
    Y si una potra alazana caballo viejo se encuentra 
    
  • Tablatura
    Gm
    |---------------------1-0-----------1-0----------|
    |-------------------3-----3-------3-----3--------|
    |-0-3-3-3-0-2-3-0-3---------3-0-3---------2------|
    |------------------------------------------------|
    |------------------------------------------------|
    |------------------------------------------------|
    
    Dm
    |---------------------1--------------------------|
    |-------------------3---3------------------------|
    |---2-2-2---0-2---2-------2-0--------------------|
    |-3-------3-----3--------------------------------|
    |------------------------------------------------|
    |------------------------------------------------|
    
    A7
    |------------------------------------------------|
    |-------------------2----------------------------|
    |---0-0-0-----0-2-2---2-0------------------------|
    
  • +
    ¡Colabora con nosotros!
    Envíanos tu versión de esta canción

Letra de Caballo Viejo
Cuando el amor llega así de esta manera
uno no se da ni cuenta,
“El Carutal” reverdece y “El Guamachito” florece
y las sogas se revientan.
Cuando el amor llega así de esta manera
uno no se da ni cuenta,
“El Carutal” reverdece y “El Guamachito” florece
y las sogas se revientan.
Caballo le dan Sabana porque esta viejo y cansao
pero no se dan de cuenta que un corazón amarrao
cuando le sueltan las riendas en caballo desbocao.
Y si una potra alazana caballo viejo se encuentra
el pecho se le desgrana y no le hace caso a falceta
y no le obedece a freno ni lo paran falsas riendas.
Cuando el amor llega así de esta manera
uno no tiene la culpa
quererse no tiene horarios ni fecha en el calendario
cuando las ganas se juntan.
Cuando el amor llega así de esta manera
uno no tiene la culpa
quererse no tiene horarios ni fecha en el calendario
cuando las ganas se juntan.
Caballo le dan sabana y tiene el tiempo contao
y se va por la mañana con su pasito apurao
a verse con su potranca que lo tiene embarrascao
El potro da tiempo al tiempo porque le sobra la edad
Caballo viejo no puede perder la flor que le dan
porque después de esta vida no hay otra oportunidad.



© LaCuerda.net · aviso legal · privacidad · contacto