Acordes de Guitarra » S »Sergio Vega » Disculpe Usted (Tab)

Disculpe Usted
Sergio Vega

Letras, Acordes y Tabs para Guitarra, Bajo y Ukulele

  • Aber SI me salio bn lo q aocomode si no pzz la corrijo jaja zaz  ahiste
    plebes
    
    
    
    Sergio Vega - Disculpe usted.
    
    C
    Disculpe usted
    
    No quiero molestarlo
              F
    Es necesario decirle unas palabras
                       G
    Yo se muy bien que hoy
               C
    Camina de su mano
                   G
    Igual que yo hace un año
                     C
    
  •                 F                 G         Em             Am
    E|-----------------------------------------------------------------------|
    A|-----------------------------------------------------------------------|
    D|-----------------------------------------------------------------------|
    G|------5-5-----------------7--5-5-4--4-4---7--7-7--7-5-4-4-5------------|
    B|----------6-5-6-5-6-5-6-5----------------5-5--5-5----------------------|
    e|-----------------------------------------------------------------------|
    
    
                 F               G          C     G       C
    E|-----------------------------------------------------------------------|
    A|-----------------------------------------------------------------------|
    D|------------------------------5----------------------------------------|
    G|---5-5-7-5-7--5-7-5-7--5-5-4-4-------7-7-5-------7-5-------------------|
    B|---------------------------------5-5---------6-5-----------------------|
    e|-----------------------------------------------------------------------|
    
    C               G               C
     DISCULPE USTED NO QUIERO MOLESTARLO
              F
    
  • +
    ¡Colabora con nosotros!
    Envíanos tu versión de esta canción

Letra de Disculpe Usted
plebes
Sergio Vega - Disculpe usted.
Disculpe usted
No quiero molestarlo
Es necesario decirle unas palabras
Yo se muy bien que hoy
Camina de su mano
Igual que yo hace un año
Ella lo hacia conmigo.
Le voy a aconsejar
Del modo más amable
Que creo indispensable decirle unas palabras
No quiero que le pase lo que paso conmigo
Y que usted pierde el cielo
Hoy que lo ha conseguido.
Le gusta mucho que le lleve serenata
Que la despierten con un beso en las mañanas
Que le regalen una hermosa rosa roja
Ese detalle es el que mas la vuelve loca.
Mas nunca dude de su amor no es de esperarse
Ella es más fiel de lo que pueda imaginarse
Que nunca cruce por su mente traicionarla
Eso mi amigo, eso la mata.




[Disculpe Usted chords][Disculpe Usted cifra]
© LaCuerda.net · aviso legal · privacidad · es · en · pt · contacto