Acordes de Guitarra » S »Sergio Blass » Hasta que te conocí (Tab)

Hasta que te conocí
Sergio Blass

Letras, Acordes y Tabs para Guitarra, Bajo y Ukulele

  • Intro.     G  Em  C  D
    
    Med.       C   G  A7 D
    
    
    
                       G                  Em        C                  D                G     
    e--7--8--7----------------7--8--7---------------------7--8---------------7---------------7---------
    -------------10----8---------------10--8--------8--8---------8-----8--8-----10--8---8--8----8--8---
    ---------------------------------------------------------------------------------------------------
    ---------------------------------------------------------------------------------------------------
    ---------------------------------------------------------------------------------------------------
    E--------------------------------------------------------------------------------------------------
    
    
    Med.
    
    
                     C                       G                         A7                       G
    e-------7--10----12------10--9---8---9--10--------15----12-12-12---14------14---13--12--13--14-----
    
  • +
    ¡Colabora con nosotros!
    Envíanos tu versión de esta canción

Letra de Hasta que te conocí
Med.
Se repite el Intro pero con otro sencillo arreglo*
los demas requintos siguen igual)
*Estos requintos no son mios me los paso un "amigo"
y no me acuerdo muy bien de la cansion, espero que
*ACORDES
-3- -0- -1- 2 0
-0- -0- -0- 3 2
-0- -0- -0- 2 0
-0- -2- -2- 0 2
-2- -2- -3- 0 0
-3- -0- -0- 0 0




[Hasta que te conocí chords][Hasta que te conocí cifra]
© LaCuerda.net · aviso legal · privacidad · es · en · pt · contacto
DINAMICO