Acordes de Guitarra » S »Los Sencillos » Mala Mujer (Tab)

Mala Mujer
Los Sencillos

Letras, Acordes y Tabs para Guitarra, Bajo y Ukulele

  • Eb               Eb                Cm                  Eb
    6------------------------------------------------------------------------
    5------------------------------------------------------------------------
    4------------------------------------------------------------------------
    3--5-3--1-------3h5--3--1-------3h5--3--1----------------1-1--3h1---1-3h1
    2---------3--1------------3--1-------------3--1--3---1h3----------3------
    1------------------------------------------------------------------------
    
    
        Eb        Eb             Cm            Eb                    Eb
    6------------------------------------------------------------------------
    5------------------------------------------------------------------------
    4------------------------------------------------------------------------
    3---1-1----3h5-3--1-------3h5--3--1----------------1-1--3h1---1-3h1-----
    2-3-----------------3--1-------------3--1--3---1h3----------3------------
    1------------------------------------------------------------------------
    
    6-------
    5-------
    4----1--
    
  • +
    ¡Colabora con nosotros!
    Envíanos tu versión de esta canción

Letra de Mala Mujer
No creas que estoy solo si no hay otra en tu lugar
diciéndome las mismas cosas que decias tu.
No creas que soy tan bobo para volver a querer,
me has enseñado bien como las gasta una mujer.
Más nunca tú tendrás,
paz en ningún lugar
Y no estaría mal decirme algún porqué
explicarme algún fallo, algún error o yo que sé.
Y no estaría mal decirme algún porqué
explicarme algún fallo, algún error o yo que sé.
Mala mujer mala mujer
que me has robado el corazón.
Mala mujer mala mujer
que me se ha llevado mi amor.
G5G5 G5G5 G5G5 G5G5
No volverán los peces en el parque a comer pan,
que tú y yo lanzamos cada noche por amor.
Sé que tu inteligencia te hará fácil olvidar,
más de mil recuerdos no caben en un rincón.
Y sé que llorarás
que arde tu corazón.
Y no estaría mal decirme algún porqué
explicarme algún fallo, algún error o yo que sé.
Y no estaría mal decirme algún porqué
explicarme algún fallo, algún error o yo que sé.
Mala mujer mala mujer
que me has robado el corazón.
Mala mujer mala mujer
que me se ha llevado mi amor.
Guitarra 1
Guitarra 2
G5G5 G5G5 G5G5
Y no estaría mal decirme algún porqué
explicarme algún fallo, algún error o yo que sé.
[x4]
Mala mujer mala mujer
que me has robado el corazón.
Muy mala muy mala,
tú eres una mala mujer,
que me ha robado el corazón
y se ha llevado.
Mala mujer, tú eres una mala mujer.
Acordes:

Video de Mala Mujer
[]




[Mala Mujer chords][Mala Mujer cifra]
© LaCuerda.net · aviso legal · privacidad · es · en · pt · contacto