Acordes de Guitarra » S »Seguimos perdiendo » Quisiera que supieras lo que cuesta empezar (Tab)

Quisiera que supieras lo que cuesta empezar
Seguimos perdiendo

  • Tablatura
    B                          E    G               B
    quisiera estar en tu lugar para sentirme simpre igual para
               E               G                 B
    no conocer jamas lo que es sufrir y recordar  quisiera
    E               B          E            B          E              G
    darte este dolor y que lo sientaS como yo quisiera K estuvieras mal
    
    
    para k negar desde k te vi fuiste especial de ti me hiba a enamorar
    
    1--7-7-7-9-9-9-7-7-7-7-7-7-------------------------------------
    2-6-6-6-7-7-7-6-6-6-5-5-5--------------------------------------
    3--------------------------------------------------------------
    4--------------------------------------------------------------
    5--------------------------------------------------------------
    6--------------------------------------------------------------
    
    ya k mas da si toke tu alma ahora no queda nada mas
    
    1--7-7-7-9-9-9-7-7-7-7-7-7-------------------------------------
    
  • Tab p/Bajo
    parte 1
    G-----------------------------------------------------------------
    D-----------------------------------------------------------------
    A-------9999-11-11-11-11----------------------------9999----------
    E-1-7777----------------12-12-11-11-11-999-----7777------77777777-
    
    parte -(2)-
    
    G---------------------------------------------------------------
    D---------------------------------------------------------------
    A----------66-7777-9999---x3--------7777----7777----7777-9999999
    E-77777777----------------------7777----7777----7777------------
    
    parte  3
    
    G---------------------------------------------------------------------
    D------13-14-14-14-14-----------------------------10-11-11-11----9---9
    A-11-11----------------------14-14-14-----14---9-9--------------------
    E-----------------------12-12----------12----------------------77--77-
    
    parte 4
    
    G------------------------------------------------------
    D------------------------------------------------------
    A-----66--6-6-7777--999-77-9-----
  • +
    ¡Colabora con nosotros!
    Envíanos tu versión de esta canción

Letra de Quisiera que supieras lo que cuesta empezar
quisiera estar en tu lugar para sentirme simpre igual para
no conocer jamas lo que es sufrir y recordar quisiera
darte este dolor y que lo sientaS como yo quisiera K estuvieras mal
para k negar desde k te vi fuiste especial de ti me hiba a enamorar
ya k mas da si toke tu alma ahora no queda nada mas
quisiera estar en tu lugar para sentirme simpre igual para
no conocer jamas lo que es sufrir y recordar quisiera
darte este dolor y que lo sientaS como yo quisiera K estuvieras mal
""
1--2/7-7-7-7-6-6-6-11-11-11-12-12-12-11-11-11-14-14-14-12-12-12
2--2/7-7-7-7-6-6-6-11-11-11-12-12-12-11-11-11-14-14-14-12-12-12
quisiera estar en tu lugar para sentirme simpre igual para
no conocer jamas lo que es sufrir y recordar quisiera
que hoy a mis pies rogaras como lo hice ayer qusiera que supieras lo
Que cuesta empezar....EMPEZAR
ACORDES PARA QUE LA ENTIENDAN MEJOR
la neta se ke no esta muy bien explicada pero sin encambio
si esta chingona la transcripcion si no luego la mejoro y esta
dedicada tambien para como dice la rola "las que se cojen a alguien
mas"



© LaCuerda.net · aviso legal · privacidad · contacto
DINAMICO