Acordes de Guitarra » S »Seguimos perdiendo » La única mujer (Tab)

La única mujer
Seguimos perdiendo

Letras, Acordes y Tabs para Guitarra, Bajo y Ukulele

  • INTRO:  MI-DO,REm SOL,FA#,MI-SI,DO,REm
          SOL-DO,SOL,DO,SOL
    
    
    SOL      DO            SOL
    Hoy me la encontrado caminando
    MI         RE             SOL
    Hoy me la he encontrado a la infeliz
    DO         RE          SOL      MI
    Que perdió el encanto de todo mi pasado
    LA                         RE
    Que dejo en silencio el porvenir
    
    SOL        DO            SOL
    Hoy me he vuelto a sentir tan solo
    MI         RE         SOL
    Creo  recordar que fui feliz
    DO         RE       SOL      MI
    La sonrisa suya que era mi locura
    LA               RE     MI
    
  •    E5 x9
                 C5            D5          G5    F#5   E5
    d#|--------------------------------------------------|
    A#|--------------------------------------------------|
    F#|----10----8--------------------8------------------|
    C#|-10----10---11--11-10-11-8--8----11-10--10-8-10---|
    G#|------------------------------------------------8-|
    D#|--------------------------------------------------|
    
                      B5           C5               D5
    d#|--------------------------------------------------|
    A#|--------------------------------------------------|
    F#|---------------------------------------------8----|
    C#|---------8-10--10-10--10-10-11--11-11--11-11------|
    G#|-8-11--11-----------------------------------------|
    D#|--------------------------------------------------|
    
                   G5               C5            G5
    d#|--------------------------------------------------|
    A#|-------------------------------------------13--13-|
    
  • +
    ¡Colabora con nosotros!
    Envíanos tu versión de esta canción

Letra de La única mujer
Hoy me la encontrado caminando
Hoy me la he encontrado a la infeliz
Que perdió el encanto de todo mi pasado
Que dejo en silencio el porvenir
Hoy me he vuelto a sentir tan solo
Creo recordar que fui feliz
La sonrisa suya que era mi locura
Y que nunca jamás volví a sentir
Me estoy perdido, es la única mujer que hay
Y en mi delirio no creo poderla olvidar
Me estoy perdido, es la única mujer que hay
Y en mi delirio no creo poderla olvidar
PARA CUALQUIER DUDA COMUNICARSE CONMIGO......
DEDICADA A :DALILA VIRIDIANA.........




[La única mujer chords][La única mujer cifra]
© LaCuerda.net · aviso legal · privacidad · es · en · pt · contacto
DINAMICO