Acordes de Guitarra » S »Seguimos perdiendo » Cirrosis (Tab)
  • Tablatura
    -------------------------------------------------------------------
    -------------------------------------------------------------------
    --11-11p12----11------11-11p12-------------------------------------
    -----------12------------------12-9---9-11--13h1414-14h1616-16p1413
    -------------------------------------------------------------------
    -------------------------------------------------------------------
    
    
    -------------------------------------------------------------------
    -------------------------------------------------------------------
    --11-11p12----11------11-11p12-------------------------------------
    -----------12------------------12-9---9-11--13h1414-14h1616-16---13
    -------------------------------------------------------------------
    -------------------------------------------------------------------
    
               E5                              A5
    y Es por alcohol y Es por alcohol que vivo yo
                         B5                    E5
    cuando debajo de un farol o debajo de un avion
    E5
    
  • +
    ¡Colabora con nosotros!
    Envíanos tu versión de esta canción

Letra de Cirrosis
y Es por alcohol y Es por alcohol que vivo yo
cuando debajo de un farol o debajo de un avion
No es por amor, No es por amor
que vagare,porque me cago en el amor
yo de ti me enamore ya lo vez
alcohol la vida que me das
cuando estoy borracho te quiero mas
alcohol, cirrosis tan veloz
cuando estoy borracho
me cago en dios
y es por alcohol
es por alcohol que vivo asi
siN trabajo y sin control
sin familia y sin amor
y no es por amor no es por amor que vagare
por que me cago en el amor
yo de ti me enamore ya lo vez
alcohol que vida que me das
cuando estoy borracho te quiero mas
alcohol cirrosis tan veloz
y cuando estoy boracho me cago en dios
me cago en dios
me cago en dios
me cago en dios
me cago en dios
me cago en dioooooooos
Espero y les Guste, si no, chinguen a su madre!!



© LaCuerda.net · aviso legal · privacidad · contacto
DINAMICO