Acordes de Guitarra » S »La Secta » Come on (Tab)

Come on
La Secta

Letras, Notas, Punteos, Tablaturas y Acordes de Guitarra (Tabs & Chords)

  • Tablatura
    Alberto
    segunda guitarra
    afinación:bemol
    distorción
    
    
    ---------------------------------------------------
    ---------------------------------------------------
    ---------------------------------------------------
    -5555----------------------------------------------x8
    -3333-5555--3333--3-3-3-3-3-3-3--------------------
    ------3333--1111--1-0-1-0-1-0-1--------------------
    wouw wouw wouw
    
    ---------------------------------------------------
    ---------------------------------------------------
    ---------------------------------------------------
    -5------------------------------------------------5
    -3--------------------feedback--------------------3
    ---------------------------------------------------
    Cuantos vienen cuantos van este mes que va a pasar...
    
    
    ----------------------------------------------------
    ----------------------------------------------------
    ----------------------------------------------------
    -55-xxxx--------------------------------------------
    -33-xxx
  • +
    ¡Colabora con nosotros!
    Envíanos tu versión de esta canción





© LaCuerda.net · Aviso Legal · Privacidad
DINAMICO