Acordes de Guitarra » S »Scorpions » Vientos de cambio (Tab)

Vientos de cambio
Scorpions

Letras, Acordes y Tabs para Guitarra, Bajo y Ukulele

  • F            Dm           Am7          G              C
    
    E  |1|-|-|   E  |1|-|-|   E  |-|-|-|   E  |-|-|-4-|   E  |-|-|-|
    B  |1|-|-|   B  |-|-|3|   B  |1|-|-|   B  |-|-|(3)|   B  |1|-|-| 
    G  |1|2|-|   G  |-|2|-|   G  |-|-|-|   G  |-|-|---|   G  |-|-|-|  
    D  |1|-|4|   D  |-|-|-|   D  |-|2|-|   D  |-|-|---|   D  |-|2|-| 
    A  |1|-|3|   A  |-|-|-|   A  |-|-|-|   A  |-|1|---|   A  |-|-|3| 
    E  |1|-|-|   E  |-|-|-|   E  |-|-|-|   E  |-|-|-2-|   E  |-|-|-|
    
    F9           Am/F           Am           E            E7
    
    E x|-|-|-|   E  |-|---|-|   E  |-|-|-|   E  |-|-|-|   E  |-|-|-|
    B x|-|-|-|   B  |1|---|-|   B  |1|-|-|   B  |-|-|-|   B  |-|-|4| 
    G  |-|-|-|   G  |-|-3-|-|   G  |-|3|-|   G  |1|-|-|   G  |1|-|-|  
    D  |-|-|4|   D  |-|(2)|4|   D  |-|2|-|   D  |-|3|-|   D  |-|3|-| 
    A  |-|-|3|   A  |-|---|-|   A  |-|-|-|   A  |-|2|-|   A  |-|2|-| 
    E  |1|-|-|   E  |-|---|-|   E  |-|-|-|   E  |-|-|-|   E  |-|-|-|
    
    [Intro:] F, Dm, F, Dm, Am7, Dm Am7, G
    
    
  • [Intro:] F, Dm, F, Dm, Am, Dm Am, G, C
    
    Introduccion
    
    Parte 1
    
    E|----5---------8-------|
    B|----5---------8p(6)---|
    G|----5-------5-------7-|
    D|--3-----5-7-----------|
    A|----------------------|
    E|----------------------|
    
    Parte 2
    
    E|----5---------8-8---------8------|
    B|----5---------8-8-6---6---8p(6)--|
    G|----5-------5-------7----------7-|
    D|--3-----5-7----------------------|
    A|---------------------------------|
    
  • INICIO		              Verso
    G|-----|------------------------|------------------------|
    D|-----|------------------------|------------------------|
    A|--3--|--5----3----5--------3--|--5----3----5-----------|
    E|-----|---------------5--3-----|---------------5--3--1--|
    
    InterMEDIO
    G|---------------------------------------|-----|
    D|---------------------------------------|-----|
    A|----------------------------5----------|--3--|
    E|--1\10----1--1\10----5----5x-----5--3--|-----|
    
    Verso
    G|----------------------------|---------------------------|
    D|----------------------------|---------------------------|
    A|--5----3----3\5----0-----3--|--5----3---3\5----0--------|
    E|----------------------3-----|---------------------3-----|
    
    CORO
    G|------------------------------------------------|-----------|
    D|------------------------------------------------|-----------|
    A|--3--3----5--5-----3--3----5--5-----0----0------|--3----3\15|
    E|------3--3----3--------3--3----3----------1--3--|----------
  • Esta es una correccion del ke habia mandado anteriormente
    Scorpions - Wind of Change
    
    Armonica en DO (C)
    
     3   4  (4) 5  4  (4)
     4  (4) (5) 6 (5)
    (5)  5  (4) 5 (4)
     3   4  (3)
    
    (4)  4   4
     4  (4)  5  5  5   5 (5) 5
    (4)  4  (4) 4  4
     4  (4)  5  5  5   5 (5) 5
    (4)  4  (4)
     3   3   3 (4) 4  (3)
    
     3   3   3  4   5  (4)
    (3) (3) (3) 4  (3)  4 (3) 3
     3   3   3  3   4   5 (4)
    (3) (3) (3) (3)(3)  4 (4) 5
     5   5   5   5 (5)  5 (4)
    (4) (4)  5  (5) 5  (4) 5
  • +
    ¡Colabora con nosotros!
    Envíanos tu versión de esta canción

Letra de Vientos de cambio
B |1|-|-| B |-|-|3| B |1|-|-| B |-|-|(3)| B |1|-|-|
G |-|-|-| G |-|-3-|-| G |-|3|-| G |1|-|-| G |1|-|-|
D |-|-|4| D |-|(2)|4| D |-|2|-| D |-|3|-| D |-|3|-|
Por el rio de Moskva
Bajo al Gorky Park
Escuchando vientos nuevos
Verano atardecer
Soldados al pasar
Escuchando vientos nuevos
Se achica el mundo mas
Quien iba a creer
Que fueramos Tu y Yo hermanos
El futuro ya se ve
Se puede hasta tocar
Soplando con los vientos nuevos

Llevame a la magia del momento
De la gloria
Donde los niños del mañana soñarán
Los cambios que vendrán
Recuerdos del ayer
Siento al recorrer
Antiguas calles del pasado
Por el rio de Moskva
Bajo al Gorky Park
Escuchando vientos nuevos
Llevame a la magia del momento
De la gloria
Donde los niños del mañana soñarán
Los cambios que vendrán


Llevame a la magia del momento
De la gloria
Donde los sueños de los niños cambiarán
El viento hará sonar
La campana de la libertad
Ya no hay tiempo que perder
Hay que girar hacia la paz
Canta con tu balalaika ya
Lo que mi guitarra quiere gritar



Llevame a la magia del momento
De la gloria
Donde los niños del mañana soñarán
Los cambios que vendrán


Llevame a la magia del momento
De la gloria
Donde los sueños de los niños cambiarán

Video de Vientos de cambio
[]




[Vientos de cambio chords][Vientos de cambio cifra]
© LaCuerda.net · aviso legal · privacidad · es · en · pt · contacto