Acordes de Guitarra » S »Los Salvajes Rockabilly » Fuera de la ley (Tab)

Fuera de la ley
Los Salvajes Rockabilly

Letras, Acordes y Tabs para Guitarra, Bajo y Ukulele

  •             Riff E
    
    1)------------------------------------------------
    2)------------------------------------------------
    3)------------------------------------------0-----
    4)--------------------------------------------4--2
    5)-2-2------2--5--4p2h4p2---2--------2--5---------
    6)-0--0--2h3--------------4----0--2h3------0------
    
                Riff A
    
    1)--------------------------------------------------
    2)-------------------------------------------1------
    3)----------------------------------------------4--2
    4)-2-2------2--5--4p2h4p2---2---------2--5----------
    5)-0--0--2h3--------------4----0--2h3-------0-------
    6)--------------------------------------------------
    
                 Riff B
    
    
  • +
    ¡Colabora con nosotros!
    Envíanos tu versión de esta canción

Letra de Fuera de la ley
Hago un buen negocio con los verdes
Cruzo por la calle en la mitad
Ando en una moto sin papeles
compro whisky sin estampillar
No te preocupes tanto ya te vas a acostumbrar
Vuelvo de dormir en otra cama
rompo paragolpes al salir
pongo mil excusas a un cana
ando por la ruta a veinte mil
y digan lo que quieran, no me voy a arrepentir
Estoy fuera de la ley (fuera de la ley)
Estoy fuera de la ley (fuera de la ley)
Estoy fuera de la ley (fuera de la ley)
Estoy fuera de la ley (fuera de la ley)
Yo no se si te das cuenta...
Estoy fuera de la ley...
Rompo las butacas de algun teatro
aprendi que dos y dos son cuatro
en la caja fuerte de papá
y en la imprenta de mi barrio
aprendi a falsificar
Estoy fuera...
Solo2
Estoy fuera...

Video de Fuera de la ley
[]




[Fuera de la ley chords][Fuera de la ley cifra]
© LaCuerda.net · aviso legal · privacidad · es · en · pt · contacto