Acordes de Guitarra » R »Russian Red » La canción de tu vida (Tab)

La canción de tu vida
Russian Red

Letras, Acordes y Tabs para Guitarra, Bajo y Ukulele

  •      DO               MIm                FA              SOL
    |------------|      |------------|       |------------|      |------------|
    |------1-----|      |------0-----|       |-------1----|      |------3-----|
    |---0-----0--|x4    |---0-----0--|x4     |----2-----2-|x4    |---4-----4--|x4
    |------------|      |------------|       |------------|      |------------|
    |-3----------|      |------------|       |------------|      |------------|
    |------------|      |-0----------|       |-1----------|      |-3----------|
    
    
      LAm                  LAm*
    |------------|      |------------|
    |------1-----|      |------1-----|
    |---2-----2--|x3    |---0-----0--|x1
    |------------|      |------------|
    |-0----------|      |-2----------|
    |------------|      |------------|
    
    Con esto pueden guiarse para sacar el arpegio de toda la canción.
    
    
    
  • +
    ¡Colabora con nosotros!
    Envíanos tu versión de esta canción

Letra de La canción de tu vida
Con esto pueden guiarse para sacar el arpegio de toda la canción.
Verso
Sentado en las rocas,
observando el vaivén de las olas,
son como tu estar, siempre alto.
Verso
El recuerdo de las noches,
siempre frescas, siempre tiernas,
me llevan a una luz esplendorosa.
Porque fué la canción del verano,
la canción de nuestra vida,
como un rayo que atraviesa las heridas.
Porque fué la canción del verano,
la canción de nuestra vida,
como un rayo que atraviesa las heridas
Verso
Que lejos está la puerta
que te lleva a tu casa y al trabajo.
Vamos a bailar este tecno.
Verso
La música es tan frágil
que los recuerdos
se quedan impregnados para siempre,
vamos a bailar.
Porque fué la canción del verano,
la canción de nuestra vida,
como un rayo que atraviesa las heridas.
Porque fué...

Video de La canción de tu vida
[]




[La canción de tu vida chords][La canción de tu vida cifra]
© LaCuerda.net · aviso legal · privacidad · es · en · pt · contacto