Acordes de Guitarra » R »La Rue Morgue » Sigues dando vueltas (Tab)

Sigues dando vueltas
La Rue Morgue

Letras, Notas, Punteos, Tablaturas y Acordes de Guitarra (Tabs & Chords)

  • Letra y Acordes
    E||-1-1-3-2-2-7-3-|-1-3-5-7-7-|-10-3-3-2---|
    B||-0-0-3-3-3-7-3-|-0-3-3-5-5-|--8-3-3-3---|
    G||---------------|-----------|------------|
    D||---------------|-----------|------------|
    A||---------------|-----------|------------|
    E||---------------|-----------|------------|
    
    
    DO        RE         SOL
    Quise mentir y aquí estoy
    DO        RE         SOL
    quise no ser y aún soy
    DO    RE             SOL      DO         SOL
    quise volar con mis sueños pero tu silueta
    RE       DO
    lo desbarató
    DO       RE          SOL
    Hace mil años tal vez
    DO       RE          SOL
    yo habría sido tu rey
    
  • Tablatura
                 DO        RE         SOL
    
    e----------------3-3-/-5-5-------------3-----------
    b--------------5-5-5-/-7-7-------------------------
    g------------5-5-----------7--4------4--4----------
    d------------5-------------7--5----5---------------
    A--------------------------------------------------
    E-----------------------------3---3-----------------
    
                 DO      RE      MIm
    
    e----------------------5-----7--------7--10----------------
    b--------------5-5-/-7-7-7---8-------8------8-8------------
    g------------5-5-5-/-7---7---9------9----------------------
    d------------5---------------------9-----------------------
    A---------------------------------7------------------------
    E--------------------------------7-------------0-p-7-0-p-7-
    
    *NOTA PARA DARLE OTRO ESTILO TOKEN LAS NOTAS CON CEJILLO Y OTRAS
     CON LAS NOTAS NORMAL
    
  • Tablatura
    Este es el solo de "Sigues Dando Vueltas" 
    Empieza en los 3:48. EN GUITARRA ACUSTICA
    
                                                                      
    E||------------------------------9-10-12----|
    B||------------------------10-12------------|
    G||----------------9-11-12------------------|
    D||--------9-10-12--------------------------|
    A||--10-12----------------------------------|
    E||-----------------------------------------|
       ^Rápido, aumentando intensidad (volumen)^
                                                                  
    |--12h14-12---b8r7-5---|---5----5--|--9h10h9----------|
    |----------------------|---5h7--5--|---------10-------|
    |----------------------|-----------|------------9h7h6-|
    |----------------------|-----------|------------------|
    |----------------------|-----------|------------------|
    |----------------------|-----------|------------------|
    
                            
    |----12h14-12---b8r7-5|-----5----5--|--(5)--5----5----||
    |---------------------
  • +
    ¡Colabora con nosotros!
    Envíanos tu versión de esta canción

Letra de Sigues dando vueltas
Quise mentir y aquí estoy
quise no ser y aún soy
quise volar con mis sueños pero tu silueta
lo desbarató
Hace mil años tal vez
yo habría sido tu rey
luchar con muchos dragones y desde mi trono hacerte el amor
Dime donde quedo
ese extraño poder
Entrar por una ventana y nunca salirte de mi corazón
debo admitir que todo es muy distinto sin ti
Sigues dando vueltas en mi cabeza, dando vueltas (x2)
Debo admitir que todo es muy distinto sin ti
Que no me apaguen la luz,
que necesito encontrar,
buscar en cada rincón los pedazos del tiempo que vimos crecer
Y al fin de esto es igual
Alguno debe llorar
mentir por última vez y aunque sea un poquito para revivir.
debo admitir que todo es muy distinto sin ti
Sigues dando vueltas en mi cabeza, dando vueltas (x2)
Debo admitir que todo es muy distinto sin ti, dando vueltas.
Debo admitir que todo es muy distinto sin ti.
Nuevamente saludos para Claudia Iturriaga que la amo :)



© LaCuerda.net · Aviso Legal · Privacidad