Tablatura para Bajo de Romeo Santos: Propuesta Indecente
Conexión · Inscripción
Letras y Acordes
Pantalla Completa
Imprimir
Versión Texto
Añadir Favorito
Otras Versiones

Mostrar Diagramas
Desfile Automático
Formato del Texto


Propuesta Indecente(BAJ)

Romeo Santos

calidad:
rsnt0135
AUTOR: Romeo Santos
ALBUM: Formula.vol 2 (2013)
Enviado por alberto
BUENO ESTE ES MI SEGUNDO APORTE
SOLO DECIR QUE EL TAB LO SAQUE VIENDO UN VIDEO DE RODOLFO DIAZ
ASI QUE TODOS LOS CREDITOS SON PARA ÉL. AQUI LES DEJO EL LINK DE
YOU TUBE DONDE PUEDEN VER COMO TOCA Y A LA VEZ GUIARSE DE ESTE TAB
QUE PRACTICAMENTE ES LO QUE ÉL TOCA.
https://www.youtube.com/watch?v=8l4nY79ICn4

ROMEO SANTOS- PROPUESTA INDECENTE
VERSO
 QUE BIERN TE VES
G------------------------------------11-11-11—9/11--
D---------------------------------------------9/11--
A------9--7-10--10--10--12-12---12-7----------------
E-7--7--7---------10---------12---------------------

G---------------------------------------14----------
D----------------------------------------14---------
A------9--7-10--10----10-12-12----12-12------0------
E--7-7--7----------10---------1212------------------

Una aventura…
G---------------------------------------------------
D--------11/12--------------------------------------
A-10-10----------10-10---10-12-12----12-------------
E------10--------------10--------1212---------------

Si te invito una copa…
G----12---------------------------------------------
D--------12-----12------12--------------------------
A-10---------10-------12-----12---------------------
E------------------10-----10------------------------

                         QUE  DIRIAS  SI ESTA NOCHE…
G-----------------------------12--------------------
D--7-----------9----------------12-----12-----------
A----7---7-------9----7---10--------10--------------
E-5----5-----7------7-------------------------------

G---------------------------------------------------
D-----12-------------------7----------9-------------
A--------12------12------7-----7-----9-----7--------
E--10--------10-------5------5-----7-----7----------

SI TE FALTO EL RESPETO…
G----12---------------------------------------------
D-------12-----12-----12-------------------7--------
A-10--------10-----------12--1212-12-----7-----7----
E------------------10------------------5-----5------
             A MEDIR TU SENSATEZ
G---------------------------------------------14------
D---9--------------------------------------------14---
A-----9---7--10-10----10-10--10-12-12----12-12------0-
E-7-----7---------1010-----10--------1212-------------


G-------------10/12-----------14-12---12--------------
D-------------10/12----------------14---14-12---------
A-10-10----10--------12-12-------------------14-12----
E------1010---------------1212------------------------

G-------------------------------------------11-------
D-------10/12----------------------------------------
A-----9--------10-10--10-12-12---12-9-9--9-----------
E-7-7---------------10--------12--------9--9---------

G-------------------------------------141414--14-------
D-------------------------------------------14----14---
A-----9--7-10-10---10-12-12-----12-12---------------12-
E-7-7--7---------10--------1212------------------------

UNA AVENTURA…
G------------------------------------------------------
D--------11/12-----------------------------------------
A-10-10--------10-10---10-12-12----12-----19/0---------
E------10-----------10---------1212--------------------

SI TE INVITO UNA COPA…
G---12------------------------------------------------
D-------12----12-----12----------------7--------------
A-10--------10---------12-----12-----7----7-----------
E-----------------10-------10------5----5-------------

G---------------12------------------------------------
D--9---------------12----12-----12--------------------
A----9----7--10-------10-----------12-----12----------
E-7-----7---------------------10-------10-------------

G------------------------12--------------------------
D--7-----------9----------12------12-----------------
A----7----7-----9---7--10------10--------------------
E-5-----5----7-----7---------------------------------

G----------------------------------------------------
D-----12-------------------7----------9--------------
A--------12--1212-12-----7-----7----9---7------------
E--10------------------5-----5----7----7-------------

A MEDIR TU SESATEZ…
G------------------------------------14-------------
D---------------------------------------14----------
A-10-10----10-10---10-12-12----12-12-------12-------
E------1010-----10---------1212---------------------

G----------------------------------12/14------------
D----------------------------------12/14------------
A-10-10----10-10---10-12-12-------------------------
E------1010-----10---------1212---------------------

SOLO
G--------------------------------------------------
D--------------------------------------------------
A--------------------------------------------------
E-77777777--33333333--55555555--22222222-----------

G-------------------------------------------------
D-------------------------------------------------
A-5-5-5-4-4--4-2-2--2-0-0--0-----5------4------2--
E----5-----4------2-------0---3-3-3--2-2--2-0-0-0-
                              HEY…
G-------------------------------------------------
D-------------------------------------------------
A-----7-------------------------------------------
E-5-5----19/0--5—19/0--2--3--5--5/19--------------


at body you and I
G-------------------------------------------------
D-------3/5-----------------7-7--7----------------
A-----5----------5-------77------7----------------
E-3-3------3-3--3--5--5---------------------------

G-------------------------------------------------
D---------3/5----------------5/7-7--7-------------
A-------5-----------------77------7---------------
E-3/5 3-------3—--19/5-5--------------------------

G------------------------------7-9-11-9------------
D-------3/5-----------------7-9--------11-9--------
A-----5--------5-------5-7-9---------------11-9----
E-3-3-------3-3--3--5-7-------------------------11-

G--------------------------------------------------
D-------3/5---------------7-7--7-------------------
A-----5-----------------77----7--------------------
E-3-3-------3---19/5-5-----------------------------

G--------------------------------9-7---------------
D------5-5--5---------7-7----9-7-------------------
A----55----5--------77-----------------------------
E—3-3-----------5-5--------------------------------


G--------------------------------------------------
D-------3/5------------------777--7----------------
A-----5--------5--------77------7--7---------------
E-3-3-------3-3--3--5-5---5----------5-------------

SOLO FINAL
G--------------------------------------------------
D-------5------5-----7----7-----5----5--7----------
A------5----5------7----7-----5----5------7--------
E-3--3---3------5-----5-----3----3----5------5-----
Este fichero es trabajo propio de su transcriptor y representa su interpretación personal de la canción. El material contenido en esta página es
para exclusivo uso privado, por lo que se prohibe su reproducción o retransmisión, así como su uso para fines comerciales.

© LaCuerda.net · Aviso Legal · Privacidad