Acordes de Guitarra » R »Roca Eterna » Fue tu gran amor (Tab)

Fue tu gran amor
Roca Eterna

Letras, Acordes y Tabs para Guitarra, Bajo y Ukulele

  • Intro: //Gmaj7-A7-Bm7// Gmaj7 -Asus2
    
    Coro
                Gmaj7    A     Bm7
    Fue tu gran amor que me compró
             Gmaj7   A    Bm7
    Y me redimió de mi dolor
             Gmaj7   A       Bm7
    Nada es igual si Tú no estás
              Gmaj7 A      Em9             Asus2
    Día a día puedo yo cantar. (Cantaaa……..ar)
    
    
    Dmaj7                                   C/D
           Necesito tu aliento, un soplo de vida
                   Gmaj7
    Que me pueda llenar
           Cmaj7         D                Asus2
    Quiero levantar mis manos y darte el honor. (Darte honor) oh oh ooooh
    Dmaj7                    C/D              Gmaj7
    
  • Intro= //G-A-Bm// G-A
    
    /Coro/
    
                 G       A    Bm
    Fue tu gran amor que me compró
           G        A    Bm
    y me redimió de mi dolor;
              G       A      Bm
    Nada es igual si Tú no estás
                 G   A   Bm
    día a día puedo yo cantar.
    
    
    Verso
                   D                  D2
    Necesito tu aliento, un soplo de vida
                    G
    que me pueda llenar,
              Gm          D                A
    
  • E -------------------------------------------------------------
    A -------------------------------------------------------------
    D -------------------------------------------------------------
    G -------------------------------------------------------------
    B ----------10-12-12-10-12-10-7----------10-12-12--------------
    e -9-10-9-7---------------------9-10-9-7----------9-9-12-10----
    
    E -------------------------------------------------------------
    A -------------------------------------------------------------
    D -------------------------------------------------------------
    G -------------------------------------------------------------
    B ----------10-12-------10-12-10-------------------------------
    e -9-10-9-7----------------------------------------------------
    
    CORO
                  G       A      Bm
    FUE TU GRAN AMOR QUE ME ENCONTRO
              G      A    Bm
    Y ME REDIMIO DE MI DOLOR
              G       A       Bm
    
  • Intro= //Bm-G-A-Bm// G-A
    
    Intro
    
    e---9h10--7-5-7-7-5-0------9h10--7-5-7-7-9-9-9-10-
    B---------------------5-7-------------------------
    G-------------------------------------------------
    D-------------------------------------------------
    A-------------------------------------------------
    E-------------------------------------------------
    
    e----9H10--7-5-7-7-5
    B--------------------
    
    Coro
    
                 G       A    Bm
    Fue tu gran amor que me compró
           G        A    Bm
    y me redimió de mi dolor;
    
  • +
    ¡Colabora con nosotros!
    Envíanos tu versión de esta canción

Letra de Fue tu gran amor
Fue tu gran amor que me compró
Y me redimió de mi dolor
Nada es igual si Tú no estás
Día a día puedo yo cantar. (Cantaaa……..ar)
Necesito tu aliento, un soplo de vida
Que me pueda llenar
Quiero levantar mis manos y darte el honor. (Darte honor) oh oh ooooh
Como imaginar que tanto amor me podría llenar
Fue tu gran amor que me compró
Y me redimió de mi dolor;
Nada es igual si Tú no estás
Día a día puedo yo cantar. (Cantaaa……..ar)
NoelAntonioCastillo: antonynoel23lp@gmail.com

Video de Fue tu gran amor
[]




[Fue tu gran amor chords][Fue tu gran amor cifra]
© LaCuerda.net · aviso legal · privacidad · es · en · pt · contacto