Acordes de Guitarra » R »Río Roma » Por si mañana (Tab)

Por si mañana
Río Roma

Letras, Acordes y Tabs para Guitarra, Bajo y Ukulele

  • |---------------------------5/7-5--5/7-5---------------|
    |-3/5--1-3-5--5/7-3-5-7-7/8--------------7/8-----------|
    |------------------------------------------------------|
    |------------------------------------------------------|
    |------------------------------------------------------|
    |------------------------------------------------------|4 veces
    
    G                                    Bm
    Llevo mucho tiempo intentando no sentir
                                    Am
    pero no es nada fácil escapar de ti
    
    He intentado ya de todo
            C      D
    pero sigues aquí.
    
    G                                       Bm
    Y es que es algo tan difícil intentar vivir
    
    cuando estoy con alguien más
    
  •      C            D               Em
    E.--------------------------------------5/7---5/7------------.
    B.---5--------5--5/7------5---7---7/8--------------7/8-------.
    G.------5--7-----------7-------------------------------------.
    D.-----------------------------------------------------------.
    A.-----------------------------------------------------------.
    e.-----------------------------------------------------------.
    
         C            D               Em
    E.--------------------------------------5/7---5/7------------.
    B.---5--------5--5/7------5---7---7/8--------------7/8-------.
    G.------5--7-----------7-------------------------------------.
    D.-----------------------------------------------------------.
    A.-----------------------------------------------------------.
    e.-----------------------------------------------------------.
    
         C            D               Em
    
    E.--------------------------------------5/7---5/7------------.
    B.---5--------5--5/7------5---7---7/8--------------7/8-------.
    
  • +
    ¡Colabora con nosotros!
    Envíanos tu versión de esta canción

Letra de Por si mañana
Llevo mucho tiempo intentando no sentir
pero no es nada fácil escapar de ti
He intentado ya de todo
pero sigues aquí.
Y es que es algo tan difícil intentar vivir
cuando estoy con alguien más
me acuerdo más de ti
Ay amor este dolor me quiere hacer morir.
Y quien me asegura que mi vida
Va a soportar un día mas de dolor.
Y por eso hoy que puedo niña,
hoy vengo a regalarte mi confesión.
Por si mañana muero sin tu amor
quiero que sepas hoy, que aún
sigues siendo mi dolor.
Por más que intento voy y vengo,
quiero pero no te olvido.
Por si mañana muero sin tu amor,
quiero que sepas hoy
que lo que siento por ti es mucho
más fuerte de lo que soy.
Yo sé que esto tal vez no te importe
y mucho menos yo G
pero quería decirtelo.
Ya gasté todas mi lágrimas por extrañar,
ya perdí toda esperanza y el poder soñar,
he perdido casi todo, menos mi soledad.
Y quien me asegura que mi vida
Va a soportar un día mas de dolor.
Y por eso hoy que puedo niña,
hoy vengo a regalarte mi confesión.
Por si mañana muero sin tu amor
quiero que sepas hoy, que aún
sigues siendo mi dolor.
Por más que intento voy y vengo,
quiero pero no te olvido.
Por si mañana muero sin tu amor,
quiero que sepas hoy
que lo que siento por ti es mucho
más fuerte de lo que soy.
Yo sé que esto tal vez no te importe
y mucho menos yo
Yo sé que esto tal vez no te importe
y mucho menos yo...
aqui va intro pero si no lo quieren hacer, los acordes son
pero quería decirtelo.




[Por si mañana chords][Por si mañana cifra]
© LaCuerda.net · aviso legal · privacidad · es · en · pt · contacto
DINAMICO