Acordes de Guitarra » R »Rijchariy » Cholito Pantalón Blanco (Tab)

Cholito Pantalón Blanco
Rijchariy

Letras, Acordes y Tabs para Guitarra, Bajo y Ukulele

  • E||--10--8-------------12-------12-------12-------|
    B||--------11-10-10-10----10-10----10-10----10-10-|
    G||-----------------------------------------------|
    D||-----------------------------------------------|
    A||-----------------------------------------------|
    E||-----------------------------------------------|
                                                       
    --13-------13-------13-------13-------12-------12-|
    -----10-10----10-10----10-10----10-10----10-10----|
    --------------------------------------------------|
    --------------------------------------------------|
    --------------------------------------------------|
    --------------------------------------------------|
                                   
    -------------------------------||
    --10-10-11-10-8-(---------10)--||
    ----------------(10-9-7-10--)--||
    -------------------------------||
    -------------------------------||
    -------------------------------||     
    
  • +
    ¡Colabora con nosotros!
    Envíanos tu versión de esta canción

Letra de Cholito Pantalón Blanco
Se repite dos veces desde el principio y en la segunda vez ya
no se toca la parte entre paréntesis del ultimo compas


Cholito pantalón blanco
Botones en la cintura
Botones en la cintura
Cholito pantalón blanco
Gracias a dios que yo tengo
Remedio pa´ la pobreza
Remedio pa´ la pobreza
Gracias a dios que yo tengo
Alzo los ojos al cielo
Y me rasco la cabeza
Alzo los ojos al cielo
Y me rasco la cabeza
Quisiera ser pajarito con las alitas azules
Quisiera ser pajarito con las alitas azules
Para volar divertido sabado, domingo y lunes
Para volar divertido sabado, domingo y lunes
Que dichosas son las pulgas
Que se suben a tu cama
A gozar de tu hermosura
De la noche a la mañana
Que dichosas son las pulgas
Que se suben a tu cama
A gozar de tu hermosura lara la la la
De la noche a la mañana
//Se toca de nuevo el RIFF 1, y se repite la letra desde el principio...
//Al final se toca el RIFF 1 nuevamente y acaba...
cualquier duda, comentario, critica, escriban!!!
osqui@atame.org




[Cholito Pantalón Blanco chords][Cholito Pantalón Blanco cifra]
© LaCuerda.net · aviso legal · privacidad · es · en · pt · contacto
DINAMICO