Acordes de Guitarra » R »Ricky Martin » El amor de mi vida (Tab)

El amor de mi vida
Ricky Martin

Letras, Acordes y Tabs para Guitarra, Bajo y Ukulele

  • A*  A9*  A4  D* G6
    0   0    0   0  X
    0   0    0   3  0
    4   1    2   2  0
    2   2    2   0  0
    0   0    0   0  2
    0   0    0   0  3
    
    Intro:
    
    A*  A9*   A4  D*
    
    A4                A9*                 G6
    Yo no se como empezó, solo sé que sucedió
             D*                     A4
    fue tal vez sin darme cuenta...
                     A9*                      Gm
    No podía ver la luz, hasta que cerré mis ojos
           D*       E
    y desperté pensando en ti.
    
  • DO FAmaj7 SOL DO MIm FAmaj7
    
    DO                MIm                REm
    Yo no se como empezó solo sé que sucedió
             LAm            SOL
    fue tal vez sin darme cuenta
    DO                MIm                    REm
    No podía ver la luz hasta que cerré mis ojos
              LAm           SOL
    y desperté pensando en ti.
    
      FAmaj7         SOL/FA                FAmaj7             SOL/FA
    A veces me parece que es todo una locura, un sueño sin sentido
    LA#                         FA/LA
     Mientras estas lejos yo espero siempre aquí
             SOL                    SOL7sus4       SOL7
    que lo nuestro vuelva a ser porque pude comprender...
    
         SOL/FA MIm        FA
    Que eres el amor de mi vida
    
  • Intro: C-Fmaj7-G-Fmaj7
    
    C                 Em
    Yo no se como empezo
                     Dm
    solo se que sucedio
             Am             G 
    fue tal vez sin darme cuenta
    C                 Em
    No podia ver la luz 
                         Dm
    hasta que cerre mis ojos
              Am            G
    y desperte pensando en ti.
    
      F              G                   Am
    A veces me parece que es todo una locura
    Fmaj7
    un sueño sin sentido
    Bb                          F
    
  • Intro:
    
    ||------------------------------------------||
    ||------------------------------------------||
    ||-3-3-3-3-3--------------------------------||
    ||----------1-1-1-1-1-3-3-3-3-3-1-1-1-1-1---||
    
    Verso:
    
    ||------------------------------------------||
    ||------------------------------------------||
    ||-3-3-3-3-3-----------5-5-5-5-5------------||
    ||----------0-0-0-0-0-1---------5-5-3-3h5-3-||
    
    Puente:
    
    ||-----------------------------------------|
    ||-----------------------------------------|
    ||-----------------------------------------|
    ||-1-1-1-1-1-3-3-3-3-3-5-5-5-5-5-1-1-1-1-1-|
    
    |------------------------------------------||
    |------------------------------------------||
    |-1-1-1-1-1--------------------------------||
    |----------1-1-1-1-1-3-3-3-3-3-3-3-3-3-3-3-||
    
    Coro:
    
    ||------------------|------------------------------||
    ||------------------|------------------------------||
    ||-3-3-3-------5-5-5|--------3-3-3-3-------5-5-5-5-||
    ||------1-1-1-1-----|-3-3-3-3--
  • +
    ¡Colabora con nosotros!
    Envíanos tu versión de esta canción

Letra de El amor de mi vida
Yo no se como empezo
fue tal vez sin darme cuenta
No podia ver la luz
hasta que cerre mis ojos
y desperte pensando en ti.
A veces me parece que es todo una locura
un sueño sin sentido
Mientras estas lejos yo espero siempre aqui
que lo nuestro vuelva a ser
por que pude comprender...
ESTRIBILLO
Que eres el amor de mi vida
me lo dice mi corazon que no se olvida
ahora tengo una razon para existir
para vivir y puedo ser feliz,por que ahora se....
Que eres el amor de mi vida
me lo dice mi corazon que no se olvida
ahora tengo una ilusion para compartir
puedo decir lo que siento es de verdad.
Hoy veo el sol brillar
y en mi mente tu recuerdo
esta creciendo cada dia
Para que puedas volver
a encontrarte en mi camino
y ser el centro de mi vida.
Quizas si te propongo ,la magica aventura
de estar junto para siempre
y seas quien espero en cada atardecer
y una estrella descubrir y te pueda repetir.
ESTRIBILLO




[El amor de mi vida chords][El amor de mi vida cifra]
© LaCuerda.net · aviso legal · privacidad · es · en · pt · contacto