Acordes de Guitarra » R »Richie Valens » La Bamba (Tab)
  • Letra y Acordes
    C: DO
    F: FA
    G: SOL
    
    Intro: C F G
    
    Para bailar la bamba,      Para bailar la bamba,
       F   G               C     F  G              C      F            
    se necesita un poca de gracia,     una poca de gracia pa mi y pa
    G                C  F  G          C         F     G 
    Ti ay ariba y ariba,     ay ariba ariba por ti se re 
              C       F     G
    por ti se re, por ti se re
    
              C       F  G               C  
    yo no soy marinero,    yo no soy marinero
        F   G            C        F   G 
    soy capitan, soy capitan, soy capitan
    
    -Coro-
    
  • Tablatura
    iNiCiO
     |--------------------------------------------------------|
     |--------------------------------------------------------|
     |-------------0---2-0----------------------0----2-0------|
     |-----------2---3------------0-3-3-2-0---2---3-----------|
     |-----0-2-3----------------2-----------3-----------------|
     |---3--------------------3-------------------------------|
    
       VERSO 1:
    
       Para bailar la bamba.......
     |--------------------------------------------------------|
     |--------------------------------------------------------|
     |--------------------------0---2-0-----------------------|
     |-------0-3-3-2-0--------2---3---------------------------|
     |-----2----------------3---------------------------------|
     |---3----------------------------------------------------|
    
       CORO:
    
       Solo: GUITARRA |---------------------------------------------------------------------|
     |---------------------------------------------------------------------|
     |------------------------------
  • Tablatura
             C        F      G             F       C       F       G
    e---------------------------I---------------------------------------I
    B--------------------1--0---I-----------------------------1-1--0-0--I
    G-----------0-----2--2--0---I---------2-2-0-------2----2--2-2--0-0--I
    D-----------2--0--3---------I------0--3-3-2--0----0-0--3------------I
    A----0-2-3------------------I----2-------------3--------------------I
    E--3------------------------I--3------------------------------------I
    
    ESTROFA 1:
                   C     F  G
    Para bailar la bamba
             F      C       F    G       F        C     F  G
    Para bailar la bamba se necesita una poca de gracia
        F         C        F        G
    Una poca de gracia pa’ mi y pa’ ti
         F        C     F  G
    Ay arriba y arriba
          F        C        F     G      F     C      F    G
    Ay arriba y arriba, por ti seré, por ti seré, por ti seré
           F       C   F  G
    
  • Tab p/Bajo
    Ritchie Valens (Los Lobos)
    
    Primero la introducción la hace la guitarra sola.
    
    Estrofas
    G |-----------------------|
    D |-----------------------|
    A |-3-3---------------0-2-|
    E |-----0-1-1-3-3-0-1-----| X6
    
    
    G |-------------|
    D |-------------|
    A |-3-3---------|
    E |-----0-1-1-3-|X1
    
    [Se repite 3 veces mas]
    
    El punteo va con esto
    G |-------------------------|
    D |-------------------------|
    A |-3-3-----------------0-2-|
    E |-----0-1-1-3-3-0-1-1-----|
    
    
    Termina con esto.
    G |-------|
    D |-------|
    A |-3-----|
    E |---1-3-|
  • +
    ¡Colabora con nosotros!
    Envíanos tu versión de esta canción
  • Tutorial
    HD
    como tocar LA BAMBA melodía FACIL en guitarra ( sólo 2 dedos! )
    principiantes y novatos
    4:09

Letra de La Bamba
Para bailar la bamba, Para bailar la bamba,
se necesita un poca de gracia, una poca de gracia pa mi y pa
Ti ay ariba y ariba, ay ariba ariba por ti se re
por ti se re, por ti se re
yo no soy marinero, yo no soy marinero
soy capitan, soy capitan, soy capitan
bamba, bamba
bamba, bamba
bamba, bamba
bamba
Para bailar la bamba, Para bailar la bamba,
se necesita un poca de gracia, una poca de gracia pa mi y pa
ti y ariba y ariba
Para bailar la bamba, Para bailar la bamba,
se necesita un poca de gracia, una poca de gracia pa mi y pa
ti y ariba y ariba, ay ariba ariba por ti se re
por ti se re, por ti se re
bamba, bamba
bamba, bamba
bamba, bamba
bamba, bamba



© LaCuerda.net · aviso legal · privacidad · contacto