Tablatura para Guitarra de Ricardo Montaner: Volver
Conexión · Inscripción
Letras y Acordes
Pantalla Completa
Imprimir
Versión Texto
Añadir Favorito
Otras Versiones

Mostrar Diagramas
Desfile Automático
Manipular Acordes
Formato del Texto


Volver(TAB)

Ricardo Montaner

calidad:
rmon0804
AUTOR: Ricardo Montaner
ALBUM: Las Cosas son como son (2009)
Enviado por alejo
ESTA ES OTRA VERSIÓN ACUSTICA BIEN LENTA DE "VOLVER" A MI
ESTA VERSION ME GUSTA MAS QUE LAS OTRAS.
ESTA CANCION ES LA QUE TOCAN LA GUITARRA EN LA NOVELA
"VALIENTES".

e|----------------------------------------------------|
B|-8--7---7-7-7-7-8-10--------------------------------|
G|-7--7---7------------9--7--7---7-7-7-7--9-11--------|
D|-0--0---0-----------------0----7-------------11--9--|
A|-0--0---0----------------------0--------------------|
E|-------------------------------0--------------------|

e|--------------------------------------------------------|
B|---------------------------------------8--7---7-7-7-7-8-|
G|-------------------11-9-9-7-7-------9--7--7---7---------|
D|-9-9-9-9--9/11--12------------11-12----0--0---0---------|
A|-7-------------------------------------0--0---0---------|
E|--------------------------------------------------------|

e|----------------------------------------------------|
B|10--------------------------------------------------|
G|---9--7--7---7-7-7-7--9-11--------------------------|
D|--------0----7-------------11--9---9-9-9-9--9/11-12-|
A|-------------0---------------------7----------------|
E|-------------0--------------------------------------|

e|--------------------|-------------------------------|
B|--------------------|-8--7------10-10--8-8--7-7-----|
G|-11-9-9-7-7-------9-|-7--7----8--------0----0---9---|
D|------------11-12---|-0--0--9----------0----0-------|
A|--------------------|-0--0--------------------------|
E|--------------------|-------------------------------|

e|----------------------------------------------------|
B|----7-----------------------------------------------|
G|9-7---9-------12-12--11-11--9-9--7--------9-7-------|
D|-----------11-11------------0------12--11------7-9-11
A|--------12----12------------0-----------------------|
E|----------------------------------------------------|
                                     "ESTRIBILLO"
e|-----------------------------|-----------------------|
B|-----------------------------|--10-10-11-13-13-------|
G|--11--9-9--7-7------------9-7|-----------------------|
D|------0--------11---11-12----|-----------------------|
A|------0----------------------|-----------------------|
E|-----------------------------|-----------------------|

e|-----------------------------------------------------|
B|-13-13-15-------13-------------------15-13--13-13--15|
G|----------15-14----15---15--12-14-15-----------------|
D|-----------------------------------------------------|
A|-----------------------------------------------------|
E|-----------------------------------------------------|

e|-----------------------------------------------------|
B|--------13-------------------------------------------|
G|--15-14----15--15-15-14-12-14-15-14------------------|
D|-----------------------------------------------------|
A|-----------------------------------------------------|
E|-----------------------------------------------------|
               (REPITE ESTRIBILLO)
Este fichero es trabajo propio de su transcriptor y representa su interpretación personal de la canción. El material contenido en esta página es
para exclusivo uso privado, por lo que se prohibe su reproducción o retransmisión, así como su uso para fines comerciales.

© LaCuerda.net · Aviso Legal · Privacidad