Tablatura para Guitarra de Ricardo Arjona: Por que es tan cruel el amor
Conexión · Inscripción
Letras y Acordes
Pantalla Completa
Imprimir
Versión Texto
Añadir Favorito
Otras Versiones

Mostrar Diagramas
Desfile Automático
Manipular Acordes
Formato del Texto


Ricardo Arjona
Por que es tan cruel el amor(TAB)
calidad:
rarj0534
AUTOR: Ricardo Arjona  corregir
ALBUM: desconocido
Enviado por Mariano
Hola a Todos Apenas soy nuevo colaborador por lo que les pido de favor 
que cualquier error me lo hagan saber para así ir mejorando.

Esta es la corrección de la rola que Arjona  saco en el disco 
Déjame decir que te amo y que ahora le quedo chidísima en el 
discosolo espero que les guste mi tablatura y se la dedico a una chica muy linda
(karla Juárez) por la cual me pego esta rola y decidí hacer la 
tablatura de la mencionada.

Saludos a mis amigos  Arturo Quintanar Carrillo
                      Fernando Gonzáles Polo
                      Raymundo González García
                      José Luis Soñanes Jiménez
                      Joshua Palafox
                      Jaquielín húrtecho
                      Y a Carlos León (Sanz)

Mi nombre es Mariano Luis Díaz Azbell y Mi correo es 
Rodney70hotmail.com para cualquier corrección de la rola.

E----------------------------------------------
A----------------------------------------------
D----------------------------------------------
intro G---------------------------------------------- B--9-10-12-------------------------------------
E----------9-10h12--10-10-9-9-7-7/5-5h7/9------
E----------------------------------------------
A----------------------------------------------
D----------------------------------------------
G---------------------------------------------- B--9-10-12-------------------------------------
E----------9-10h12--10-10-9-9-7-7-5-5----------
E----------------------------------------------
A----------------------------------------------
D----------------------------------------------
Req 1 G--8-8-11-7/8----------------------------------
B----------------------------------------------
E----------------------------------------------
E----------------------------------------------
A----------------------------------------------
D----------------------------------------------
Req 2 G---------------------------------------------- B--9-10h12-------------------------------------
E----------9-9/10-9----------------------------
E----------------------------------------------
A----------------------------------------------
D----------------------------------------------
Req 3 G---10-10-10-9---------------------------------
B---------------------------------------------- E---10-10-10-9---------------------------------
E----------------------------------------------
A----------------------------------------------
D----------------------------------------------
Req 4 G---------------------------------------------- B-9-10-12-10-9-9-7-5-5-------------------------
E----------------------------------------------
E----------------------------------------------
A----------------------------------------------
D----------------------------------------------
Req 5 G---------------------------------------------- B-12-12-12-10-9h10-12/14-14--------------------
E----------------------------------------------
E----------------------------------------------
A----------------------------------------------
D----------------------------------------------
Req 6 G----------------------------------------------
B---------------------------------------------- E--12-12-12------------------------------------
A No se acaba el amor
F#m Solo con decir adiós
D Hay que tener presente Que el estar ausente
A D No anula el recuerdo
F#m D Ni compra el olvido Req 1
E7 Ni nos borra del mapa.
A El que tu no estés Req 2
F#m No te aparta de mi
D Entre menos te tengo Mas te recuerdo
A D Aunque quiera olvidarte
G---10-10-10-9-
B-------------- E---10-10-10-9-
F#m D Estas en mi mente Req 1
E7 Y me pregunto mil veces.
A A/C#m ¿Por que es tan cruel el amor?
C#m Que no me deja olvidar Req 4
D Que me prohíbe pensar
E7 Que me ata y desata
C#m F#m Y luego de a poco me mata
D E7 me bota, levanta y me vuelve a tirar
A A/C#m ¿Por que es tan cruel el amor?
C#m Que no me deja olvidar Req 4
D Porque aunque tu ya no estés
E7 Se mete en mi sangre
C#m F#m Y se va de rincón en rincón
D Arañándome el alma
E7 Y rasgando el corazón
A ¿Por que es tan cruel el amor?
E----------------------------------------------------
A----------------------------------------------------
D----------------------------------------------------
intro G---------------------------------------------------- B--9-10-12-------------------------------------------
E----------9-10h12--10-10-9-9-7-7/5-5h7/9--10-10-9-9-
E----------------------------------------------
A----------------------------------------------
D----------------------------------------------
G---------------------------------------------- B--9-10-12-------------------------------------
E----------9-10h12--10-10-9-9-7-7-5-5----------
A No se acaba el amor
F#m Solo porque no estas
D No se puede borrar Así por así,
A D nuestra historia
F#m D Seria matar la memoria Req 1
E7 Y quemar nuestras glorias
A A/C#m ¿Por que es tan cruel el amor?
C#m Que no me deja olvidar Req 4
D Que me prohíbe pensar
E7 Que me ata y desata
C#m F#m Y luego de a poco me mata
D E7 me bota, levanta y me vuelve a tirar Req 6
A A/C#m ¿Por que es tan cruel el amor?
C#m Que no me deja olvidar Req 5
D Porque aunque tu ya no estés
E7 Se mete en mi sangre
C#m F#m Y se va de rincón en rincón
D Arañándome el alma
E7 Y rasgando el corazón
A ¿Por que es tan cruel el amor?
E----------------------------------------------------
A----------------------------------------------------
D----------------------------------------------------
intro G---------------------------------------------------- B--9-10-12-------------------------------------------
E----------9-10h12--10-10-9-9-7-7/5-5h7/9--10-10-9-9-
E----------------------------------------------
A----------------------------------------------
D----------------------------------------------
G---------------------------------------------- B--9-10-12-------------------------------------
E----------9-10h12--10-10-9-9-7-7-5-5----------
Este fichero es trabajo propio de su transcriptor y representa su interpretación personal de la canción. El material contenido en esta página es
para exclusivo uso privado, por lo que se prohibe su reproducción o retransmisión, así como su uso para fines comerciales.
© LaCuerda.net · Aviso Legal · Privacidad