Tablatura para Guitarra de Ricardo Arjona: Chicos de plástico
Conexión · Inscripción
Letras y Acordes
Pantalla Completa
Imprimir
Versión Texto
Añadir Favorito
Otras Versiones

Mostrar Diagramas
Desfile Automático
Manipular Acordes
Formato del Texto


Ricardo Arjona
Chicos de plástico(TAB)
calidad:
rarj0962
AUTOR: Ricardo Arjona
ALBUM: Historias
Enviado por German
Pues esta es mi version 100% para guitarra electrica con una buena 
distorcion de esta rola. Tal vez si la tocan en guitarra acustica
no suene tan bien, asi que ya saben.

Intro:

1. ----------------
2. -5-5-5-7-7-7-5--
3. ---------------- 
4. ----------------  X4
5. ----------------
6. ----------------


Con un saco de Versace, y un Cartier en la muñeca, 
1. --------------x--x------------------------x--x---|
2. --------------1--1------------------------1--1---|
3. --3-5-3-7-5-3-2--2--2-3-3--3-5-3-7-5-3-5--2--2---|
4. --------------3--3------------------------3--3---|
5. --------------3--3------------------------3--3---|
6. --------------x--x------------------------x--x---|

con un Mercedes del año, regalos de papi y mami,
1. ---------------------------------------------|
2. ---------------------------------------------|
3. -0-3-5-7-5-3-5-5--0-3-7-3-7-5-3-7-5-3----5b--|
4. ---------------------------------------7-----|
5. ---------------------------------------------|
6. ---------------------------------------------|

con Bousheron’ en el cuello, y unos Carrera en los ojos,
1. --------------x--x------------------------x--x---|
2. --------------1--1------------------------1--1---|
3. --3-5-3-7-5-3-2--2--2-3-3--3-5-3-7-5-3-5--2--2---|
4. --------------3--3------------------------3--3---|
5. --------------3--3------------------------3--3---|
6. --------------x--x------------------------x--x---|

con unos jeans de Valentino, el es un promo ambulante.
1. ---------------------------------------------|
2. ---------------------------------------------|
3. -0-3-5-7-5-3-5-5--0-3-7-3-7-5-3-7-5-3----5b--|
4. ---------------------------------------7-----|
5. ---------------------------------------------|
6. ---------------------------------------------|


Basto para conquistarte, la pura tapiceria,
1. --------------x--x------------------------x--x---|
2. --------------1--1------------------------1--1---|
3. --3-5-3-7-5-3-2--2--2-3-3--3-5-3-7-5-3-5--2--2---|
4. --------------3--3------------------------3--3---|
5. --------------3--3------------------------3--3---|
6. --------------x--x------------------------x--x---|

basto para disfrasarte, la pura bisuteria,
1. ---------------------------------------------|
2. ---------------------------------------------|
3. -0-3-5-7-5-3-5-5--0-3-7-3-7-5-3-7-5-3----5b--|
4. ---------------------------------------7-----|
5. ---------------------------------------------|
6. ---------------------------------------------|

a ver si cuando esten solos, y ya no esten papi y mami,
1. --------------x--x------------------------x--x---|
2. --------------1--1------------------------1--1---|
3. --3-5-3-7-5-3-2--2--2-3-3--3-5-3-7-5-3-5--2--2---|
4. --------------3--3------------------------3--3---|
5. --------------3--3------------------------3--3---|
6. --------------x--x------------------------x--x---|

a la hora de estar desnudos, los salva el señor Versace.
1. ---------------------------------------------|
2. ---------------------------------------------|
3. -0-3-5-7-5-3-5-5--0-3-7-3-7-5-3-7-5-3----5b--|
4. ---------------------------------------7-----|
5. ---------------------------------------------|
6. ---------------------------------------------|

CORO:

Chicos de plastico, chiscos de plastico,
1. --------------------------------|
2. --------------------------------|
3. –7b-5-3-5-3-0----7b-5-3-5b-3-2--|
4. --------------------------------|
5. --------------------------------|
6. --------------------------------|

cada oveja busca su pareja y se construye su propia reja,
1. -3-3-3-3-3-1-0---3-1-0-0-0-3b-1-1-3-3/5-5p3b--|
2. ---------------3------------------------------|
3. ----------------------------------------------|
4. ----------------------------------------------|
5. ----------------------------------------------|
6. ----------------------------------------------|

chicos de plastico, chiscos de plastico,
1. --------------------------------|
2. --------------------------------|
3. –7b-5-3-5-3-0----7b-5-3-5b-3-2--|
4. --------------------------------|
5. --------------------------------|
6. --------------------------------|

su amargura la pintan de alegria y viven una pesadilla,
1. -3-3-3-3-3-1-0---3-1-0-0-0-3b-1-1-3-3/5-5p3b--|
2. ---------------3------------------------------|
3. ----------------------------------------------|
4. ----------------------------------------------|
5. ----------------------------------------------|
6. ----------------------------------------------|

Entre sus trajes de lujo, y ese tan extraño hablado,
1. ---------------------------------------------|
2. ---------------------------------------------|
3. -0-3-5-7-5-3-5-5--0-3-7-3-7-5-3-7-5-3----5b--|
4. ---------------------------------------7-----|
5. ---------------------------------------------|
6. ---------------------------------------------|

con ese gran influjo, que el norte les ha heredado. 
1. ---------------------------------------------|
2. ---------------------------------------------|
3. -0-3-5-7-5-3-5-5--0-3-7-3-7-5-3-7-5-3----5b--|
4. ---------------------------------------7-----|
5. ---------------------------------------------|
6. ---------------------------------------------|


Chicos de plastico, chiscos de plastico,
1. --------------------------------|
2. --------------------------------|
3. –7b-5-3-5-3-0----7b-5-3-5b-3-2--|
4. --------------------------------|
5. --------------------------------|
6. --------------------------------|

cada oveja busca su pareja y se construye su propia reja,
1. -3-3-3-3-3-1-0---3-1-0-0-0-3b-1-1-3-3/5-5p3b--|
2. ---------------3------------------------------|
3. ----------------------------------------------|
4. ----------------------------------------------|
5. ----------------------------------------------|
6. ----------------------------------------------|

chicos de plastico.
1. ---------------|
2. ---------------|
3. -7-7-5-7-5-7b--|
4. ---------------|
5. ---------------|
6. ---------------|

1. -------------|-----------------------|
2. -------------|-----------------------|
3. ---3-7b-5----|---3h5p3-5/7-7-5-------|
4. -3--------3--|-3---------------303b--|
5. -------------|-----------------------|
6. -------------|-----------------------|


No es que este mal o este bien, si es que tu te lo has ganado,
1. --------------x--x------------------------x--x---|
2. --------------1--1------------------------1--1---|
3. --3-5-3-7-5-3-2--2--2-3-3--3-5-3-7-5-3-5--2--2---|
4. --------------3--3------------------------3--3---|
5. --------------3--3------------------------3--3---|
6. --------------x--x------------------------x--x---|

lo malo es ir presumiendo, lo que tu papi te ha dada,
1. ---------------------------------------------|
2. ---------------------------------------------|
3. -0-3-5-7-5-3-5-5--0-3-7-3-7-5-3-7-5-3----5b--|
4. ---------------------------------------7-----|
5. ---------------------------------------------|
6. ---------------------------------------------|

cuidado que entre la ceda, tambien cabe un papanatas,
1. --------------x--x------------------------x--x---|
2. --------------1--1------------------------1--1---|
3. --3-5-3-7-5-3-2--2--2-3-3--3-5-3-7-5-3-5--2--2---|
4. --------------3--3------------------------3--3---|
5. --------------3--3------------------------3--3---|
6. --------------x--x------------------------x--x---|

cuidado que el caviar, tambien le gusta a las ratas.
1. ---------------------------------------------|
2. ---------------------------------------------|
3. -0-3-5-7-5-3-5-5--0-3-7-3-7-5-3-7-5-3----5b--|
4. ---------------------------------------7-----|
5. ---------------------------------------------|
6. ---------------------------------------------|


Chicos de plastico, chiscos de plastico,
1. --------------------------------|
2. --------------------------------|
3. –7b-5-3-5-3-0----7b-5-3-5b-3-2--|
4. --------------------------------|
5. --------------------------------|
6. --------------------------------|

cada oveja busca su pareja y se construye su propia reja,
1. -3-3-3-3-3-1-0---3-1-0-0-0-3b-1-1-3-3/5-5p3b--|
2. ---------------3------------------------------|
3. ----------------------------------------------|
4. ----------------------------------------------|
5. ----------------------------------------------|
6. ----------------------------------------------|

chicos de plastico, chiscos de plastico,
1. --------------------------------|
2. --------------------------------|
3. –7b-5-3-5-3-0----7b-5-3-5b-3-2--|
4. --------------------------------|
5. --------------------------------|
6. --------------------------------|

su amargura la pintan de alegria y viven una pesadilla,
1. -3-3-3-3-3-1-0---3-1-0-0-0-3b-1-1-3-3/5-5p3b--|
2. ---------------3------------------------------|
3. ----------------------------------------------|
4. ----------------------------------------------|
5. ----------------------------------------------|
6. ----------------------------------------------|

Entre sus trajes de lujo, y ese tan extraño hablado,
1. ---------------------------------------------|
2. ---------------------------------------------|
3. -0-3-5-7-5-3-5-5--0-3-7-3-7-5-3-7-5-3----5b--|
4. ---------------------------------------7-----|
5. ---------------------------------------------|
6. ---------------------------------------------|

con ese gran influjo, que el norte les ha heredado. 
1. ---------------------------------------------|
2. ---------------------------------------------|
3. -0-3-5-7-5-3-5-5--0-3-7-3-7-5-3-7-5-3----5b--|
4. ---------------------------------------7-----|
5. ---------------------------------------------|
6. ---------------------------------------------|

Chicos de plastico, chiscos de plastico,
1. --------------------------------|
2. --------------------------------|
3. –7b-5-3-5-3-0----7b-5-3-5b-3-2--|
4. --------------------------------|
5. --------------------------------|
6. --------------------------------|

cada oveja busca su pareja y se construye su propia reja,
1. -3-3-3-3-3-1-0---3-1-0-0-0-3b-1-1-3-3/5-5p3b--|
2. ---------------3------------------------------|
3. ----------------------------------------------|
4. ----------------------------------------------|
5. ----------------------------------------------|
6. ----------------------------------------------|

chicos de plastico, chiscos de plastico,
1. --------------------------------|
2. --------------------------------|
3. –7b-5-3-5-3-0----7b-5-3-5b-3-2--|
4. --------------------------------|
5. --------------------------------|
6. --------------------------------|

su amargura la pintan de alegria y viven una pesadilla,
1. -3-3-3-3-3-1-0---3-1-0-0-0-3b-1-1-3-3/5-5p3b--|
2. ---------------3------------------------------|
3. ----------------------------------------------|
4. ----------------------------------------------|
5. ----------------------------------------------|
6. ----------------------------------------------|

chicos de plastico, chiscos de plastico,
1. --------------------------------|
2. --------------------------------|
3. –7b-5-3-5-3-0----7b-5-3-5b-3-2--|
4. --------------------------------|
5. --------------------------------|
6. --------------------------------|



1. -------------|-----------------------|--------|
2. -------------|-----------------------|--------|
3. ---3-7b-5----|---3h5p3-5/7-7-5-------|-VARIAS-|
4. -3--------3--|-3---------------303b--|--VECES-|FADE OUT...
5. -------------|-----------------------|--------|
6. -------------|-----------------------|--------|


Dudas o comentarios a mi mail. Espero les guste.
Suerte!!!
Este fichero es trabajo propio de su transcriptor y representa su interpretación personal de la canción. El material contenido en esta página es
para exclusivo uso privado, por lo que se prohibe su reproducción o retransmisión, así como su uso para fines comerciales.
© LaCuerda.net · Aviso Legal · Privacidad