Acordes de Guitarra » R »Renacer » Tu Reinarás (Tab)

Tu Reinarás
Renacer

Letras, Acordes y Tabs para Guitarra, Bajo y Ukulele

  • C - Am
    
    Intro: C
    
          C
    Creo que… Algo va a pasar
           Am
    Cuando Tú vengas a este lugar
         C       Am        C
    Tu amor, tu amor reinará…
    
           C
    Creo que… Algo va a pasar
           Am
    Cuando Tú vengas a este lugar
         C    Am                 C
    Solo Tú Jesús… tienes el control…
    
          C
    Puedo ver, al enfermo sanar
    
  • ~ = dejar sonando
    / = slide
    0 = cuerda al aire (sin pisar)
    Intro y estrofa 1 (sólo guitarra y voz)
    C     Am       C
    C                                 Am
    Creo que, algo va a pasar, cuando tú vengas a este lugar
    C                      Am
    Tú amor, tu amor reinará
    Estrofa 2
    Creo que, algo va a pasar, cuando tú, vengas a este lugar
    G|--------------------------------------------------------
    D|--------------------------------------------------------
    A|----3~--------------------------------------------------
    E|--------------------1~-----1-3-5~------------3~---------
    Sólo tú,           Jesús tienes el control
    G|-------------------------------------------------
    D|-------------------------------------------------
    A|------3~-----------------------------------------
    E|-3-5-----1~----------5~------------3~------------
      Coro
    Puedo ver…
    G|---------------------------------------
    D|---------------------------------------
    A|-------------------33333333------------
    E|-55555555-11111111----------3
  • +
    ¡Colabora con nosotros!
    Envíanos tu versión de esta canción

Letra de Tu Reinarás
Creo que… Algo va a pasar
Cuando Tú vengas a este lugar
Tu amor, tu amor reinará…
Creo que… Algo va a pasar
Cuando Tú vengas a este lugar
Puedo ver, al enfermo sanar
Puedo ver, corazones volviendo a Ti
Puedo ver, tu amor en este lugar…
Tanto amor, tanto amor en este lugar…
*Pausa
Espacio: C… Am C
Puedo sentir… Tú presencia
Puedo sentir… Tú calor
Puedo sentir… Tú abrazo
Quédate aquí, quédate aquí… Ey…
Espacio: C Am
Puedo sentir… Tú presencia
Puedo sentir… Tú calor… uo…
Califiquen en la parte superior donde dice CALIDAD ojo no
es necesario estar registrado ó algo parecido solo den clic
en los cuadros verdes y les sale un cuadro pequeño aparte
para que califiquen.
Gracias
Video:
http://www.youtube.com/watch?v=FXdYBR0m_mA&feature=feedu
http://www.facebook.com/LaTribuJuvenil593 (Me Gusta)
Síganme en:
http://www.facebook.com/Abel130790 (Mensaje: LaCuerda)
http://twitter.com/@Abel130790
Visiten mi Canal Youtube:
http://www.youtube.com/user/Abel130790
(Espero pronto poner tutoriales o un video de cómo es esta
y otras alabanzas en mi canal)




[Tu Reinarás chords][Tu Reinarás cifra]
© LaCuerda.net · aviso legal · privacidad · es · en · pt · contacto
DINAMICO