Acordes de Guitarra » R »Los Relampagos » Noche de Relampagos (Tab)

Noche de Relampagos
Los Relampagos

Letras, Acordes y Tabs para Guitarra, Bajo y Ukulele

  • E---7-|-------7----------------7-----|--------------------------------|
    B-----|------------10--8--10-------8-|7-8-7---------------------------|
    G-----|-9----------------------------|---------9---7----------------7-|
    D-----|------------------------------|--------------------------------|
    A-----|------------------------------|--------------------------------|
    E-----|------------------------------|--------------------------------|
    
    
    E---------------------7------7------|------------------------------7--|
    B—-8--7--8--10----------10------8---|--10-----------------------------|
    G-----------------------------------|---------------------------------|
    D-----------------------------------|---------------------------------|
    A-----------------------------------|---------------------------------|
    E-----------------------------------|---------------------------------|
    
    
    E-------------7----------------7-----|--------------------------------|
    B------------------10--8--10-------8-|7-8-
  • +
    ¡Colabora con nosotros!
    Envíanos tu versión de esta canción



Video de Noche de Relampagos
[]




[Noche de Relampagos chords][Noche de Relampagos cifra]
© LaCuerda.net · aviso legal · privacidad · es · en · pt · contacto