Acordes de Guitarra » R »Régulo Caro » El barba negra (Tab)

El barba negra
Régulo Caro

Letras, Acordes y Tabs para Guitarra, Bajo y Ukulele

  • SOL
    |---3---|-------|-------|
    |---3---|-------|---5---|
    |---3---|-------|---5---|
    |---3---|---4---|-------|
    |---3---|-------|-------|
    |---3---|-------|-------|
    DO
    |-------|-------|---4---|-------|
    |-------|---3---|-------|-------|
    |---2---|-------|-------|-------|
    |-------|-------|-------|---5---|
    |-------|-------|-------|-------|
    |-------|-------|-------|-------|
    RE
    |-------|-------|---6---|-------|
    |-------|---5---|-------|-------|
    |---4---|-------|-------|-------|
    |-------|-------|-------|---7---|
    |-------|-------|-------|-------|
    
  • +
    ¡Colabora con nosotros!
    Envíanos tu versión de esta canción

Letra de El barba negra
El Rojo Delata Mi Rostro
Humos Que Nublan Mis Ojos
Es El Efecto De Mi Cigarro
Miro El Paisaje Distorsionado
En Mi Cámaro Super Cargado
Me Miran Soy Sospechoso
Un Semblante Peligroso
Si La 5 7 Manoteo En Corto
Escupe La Muerte Vestida De Plomo
Con Ese Ruidito Lueguito Me Entono
Las Apariencias Engañan
Cuídense Del Agua Mansa
No Me Revuelvo En El Lodo Pariente
No Somos Puercos No Somos Corrientes
Los Chapulines Los Trozo En Caliente
Si El Río Suena Trae Piedras
Si No Ay Respeto Ahi Ofensa
Se Me Atraviezan Rugen Metralletas
Mi Clave Y Mi Nombre Toneladas Pesan
Surte El Efecto La Barbona Negra
Jefes Compañeros Y Amigos
El Legado Del Guerito
No Dejaremos Caer El Trabajo
La Misma Gente Sigue Cooperando
El Chango O El Yuwui Todos Los Muchachos
Mantengo Este Recorrido
No Me Desvió Del Camino
Las Traiciones Se Pagan Con La Muerte
La Muerte Aplaza Mas No Se Detiene
Y Ese Amiguito Sabe Que Las Debe
Ya Con Esta Me Despido
Forjandome Uno De Grifo
Nubla Al Cigarro Le Jalo Y Suspiro
Me Pierdo En El Humo Nos Vemos Amigos
Esto Es Historia No Solo Un Corrido
Que Quede El Recuerdo Mientras Yo Este Vivo




[El barba negra chords][El barba negra cifra]
© LaCuerda.net · aviso legal · privacidad · es · en · pt · contacto
DINAMICO