Acordes de Guitarra » R »Real de Catorce » Cicatrices (Tab)

Cicatrices
Real de Catorce

Letras, Notas, Punteos, Tablaturas y Acordes de Guitarra (Tabs & Chords)

  • Tablatura
    Este es el riff de toda la canción.
    
    |-----------------------|
    |------------------3-1--|
    |----------------3-3-2--|
    |----3---2-3-2---3-5-3--|
    |--3---3-------3--------|
    |-----------------------|
    
    
    
    ¿ No tienes decencia? 
    ¿ No tienes decencia? 
    Me dejaste entrar en tu vida 
    me dejaste entrar en tu vida 
    Soy un perro de traspatio 
    soy un perro de traspatio 
    ¡Mira bien! ¡Guau!, sólo sé ladrar 
    Tú eres una niña buena 
    tú eres una niña buena: 
    La princesa de papá 
    la princesa de papá 
    ¡Mira bien!, sólo sé ladrar 
    Me he arrastrado por las calles 
    Lamí la lluvia de tu suela 
    lamí tu pie desnudo 
    ¿No tienes decencia? 
    ¿no tienes decencia? 
    Desde aquí el mundo es otro 
    Yo no te amo, sólo quiere roer tus huesos 
    Soy un perro de traspatio 
    Soy un perro de traspatio.
    
    
    =================================================
    Bajeo por Pável Calva Castañeda
    (pavel.calva@elfoco.com)
    
    Y Este bajeo está muy sencillo y es el de
    toda la rola:
    
    
    G
  • Tab p/Bajo
    
    
    |----------------3------|
    |----3---2-3-2-----5-3--|
    |--3---3-------3--------|
    |-----------------------|
    
    
    
    Este es el bajeo de la ultima parte de la rola.
    
    |----------------3-3/5-3------| 
    |----3---2-3-2-----------5-3--|
    |--3---3-------3--------------|
    |-----------------------------|
  • +
    ¡Colabora con nosotros!
    Envíanos tu versión de esta canción





© LaCuerda.net · Aviso Legal · Privacidad