Tablatura para Guitarra de RBD: Sálvame
Conexión · Inscripción
Letras y Acordes
Pantalla Completa
Imprimir
Versión Texto
Añadir Favorito
Otras Versiones

Mostrar Diagramas
Desfile Automático
Manipular Acordes
Formato del Texto


Sálvame(TAB)

RBD

calidad:
rbd0056
AUTOR: P. Damián, M. DiCarlo, DJ Kafka
ALBUM: Rebelde
Enviado por Kevin
VERSIÓN: MELODÍA de la canción, con CAPO en el 4to traste.

INTRO:

E|----2-3v--2--------|
B|-5v-------------3v-|
G|------------4v-----|
[BIS]

ESTROFAS:

Extrañarte es mi necesidad
Vivo en la desesperanza
Desde que tú ya no vuelves más...
E|-0x9--0---0---0-2-0--------------|
B|--------3---3-------3--3x9-------|
G|---------------------------6/4/2-|

Sobrevivo por pura ansiedad
Con el nudo en la garganta
Y es que no te dejo de pensar...
E|-0x9--0---0---0-2-0--------------|
B|--------3---3-------3--3x9-------|
G|---------------------------6/4/2-|

PRE-CORO:

Poco a poco el corazón
Va perdiendo la fe, perdiendo la voz...
E|----------------------|
B|-3x7-2--2x5-3--3x4-3v-|
G|----------------------|

CORO:

Sálvame del olvido, sálvame de la soledad
Sálvame del hastío, estoy hecho a tu voluntad...
E|-2x3-0---2-0--0x6----------0-0-2-2-0--0x7-|
B|-------0----------3-3--0-3----------------|
G|------------------------------------------|

Sálvame del olvido, sálvame de la oscuridad
Sálvame del hastío, no me dejes caer jamás...
E|-2x3-0---2-0--0x6----------0-0-2-2-0--0x7----|
B|-5v----0----------3-3--0-3----------------5v-|
G|---------------------------------------------|

INTERMEDIO:

E|----2-3v--2--------|
B|-5v-------------3v-|
G|------------4v-----|

ESTROFAS:

Me propongo tanto continuar
Pero amor es la palabra
Que me cuesta a veces olvidar...
E|-0x9--0---0---0-2-0--------------|
B|--------3---3-------3--3x9-------|
G|---------------------------6/4/2-|

Sobrevivo por pura ansiedad
Con el nudo en la garganta
Y es que no te dejo de pensar...
E|-0x9--0---0---0-2-0--------------|
B|--------3---3-------3--3x9-------|
G|---------------------------6/4/2-|

PRE-CORO

CORO

PUENTE:

E|-5--5-7-9----------------------------|
B|----------5--5-7---8--8-8-7-5--------|
G|-----------------7------------7--7-7-|

CIERRE (CORO EXT.):

Sálvame del olvido, sálvame de la soledad
Sálvame del hastío, estoy hecho a tu voluntad...
E|-2-2-4--0---2-0--0x6----------0-0-2-2-0--0x7-|
B|-5---7----0----------3-3--0-3----------------|
G|---------------------------------------------|

Sálvame del olvido, sálvame de la oscuridad
Sálvame del hastío, no me dejes caer jamás...
E|-2x3-0---2-0--0x6----------0-0-2-2-0--0x7----|
B|-5v----0----------3-3--0-3----------------5v-|
G|---------------------------------------------|


Sálvame del olvido, sálvame de la soledad
Sálvame del hastío, estoy hecho a tu voluntad...
E|-2x3-0---2-0--0x6----------0-0-2-2-0--0x7-|
B|-------0----------3-3--0-3----------------|
G|------------------------------------------|

Sálvame del olvido, sálvame de la oscuridad
Sálvame del hastío, no me dejes caer jamás...
E|-2x3-0---2-0--0x6----------0-0-2-2-0--0x7----|
B|-5v----0----------3-3--0-3----------------5v-|
G|---------------------------------------------|

Sálvame del olvido
Sálvame del hastío
E|-2x3-0---2-0---------------0-0-2-2-0------|
B|-------0---------------0-3----------------|
G|------------------------------------------|

Sálvame del olvido
E|-2x3-0---2-0----------|
B|-------0--------------|
G|----------------------|
Este fichero es trabajo propio de su transcriptor y representa su interpretación personal de la canción. El material contenido en esta página es
para exclusivo uso privado, por lo que se prohibe su reproducción o retransmisión, así como su uso para fines comerciales.

© LaCuerda.net · Aviso Legal · Privacidad