Tablatura para Bajo de RBD: Sálvame
Conexión · Inscripción
Letras y Acordes
Pantalla Completa
Imprimir
Versión Texto
Añadir Favorito
Otras Versiones

Mostrar Diagramas
Desfile Automático
Formato del Texto


Sálvame(BAJ)

RBD

calidad:
rbd0055
AUTOR: P. Damián, M. DiCarlo, DJ Kafka
ALBUM: Rebelde
Enviado por Nestor
Esta es una buena cancion,
la verdad no me gusta mucho pero si a mi novia Erika
aqui les va la version del bajo.

Intro:
Al principio entra solo el teclado, que tb lo puede hacer la guitarra

G |--------------------------------------------------
D |--------------------------------------------------
A |--4--4-4-4------------2--2-2-2-----------------4--
E |------------4--4-4-4------------2--2-2-2-2-2-2----

Pre coro:
A qui entra junto con la guitarra

G |--------------------------------------------------
D |--------------------------------------------------
A |-------------4--4-4-4--2--2-2-2-------------------
E |--2--2-2-2-2---------------------2--2-2-2---------

Coro:

G |--------------------------------------------------
D |-----------4--4-4-4-------------6--6-6-6----------
A |--------------------------------------------------   (x2)
E |--4--4-4-4------------2--2-2-2--------------------

Instrumental:
La parte del medio.

G |--------------------------------------------------
D |--------------------------------------------------
A |--4--4-4-4------------2--2-2-2--------------------
E |------------4--4-4-4------------2--2-2-2-2-2-2----

Verso:
G |--------------------------------------------------
D |--------------------------------------------------
A |--4--4-4-4------------2--2-2-2--------------------   (x2)
E |------------4--4-4-4------------2--2-2-2----------

Pre coro:

G |--------------------------------------------------
D |--------------------------------------------------
A |-------------4--4-4-4--2--2-2-2-------------------
E |--2--2-2-2-2---------------------2--2-2-2---------

Coro:

G |--------------------------------------------------
D |-----------4--4-4-4-------------6--6-6-6----------
A |--------------------------------------------------   (x2)
E |--4--4-4-4------------2--2-2-2--------------------

Intrumental:
Instrumental con el teclado, que tb lo puede hacer la guitarra.

G |--------------------------------------------------
D |--------------------------------------------------
A |--4--4-4------------2--2-2------------------------
E |-----------4--4-4-------------2--2-2-2-2-2-2------

Coro:

G |--------------------------------------------------
D |-----------4--4-4-4-------------6--6-6-6----------
A |--------------------------------------------------
E |--4--4-4-4------------2--2-2-2--------------------

Asi hasta acabar.

Saludos a los de mi banda.
Carlos, Jhonattan, XXX.
Y uno especial a mi amor Erika.
Este fichero es trabajo propio de su transcriptor y representa su interpretación personal de la canción. El material contenido en esta página es
para exclusivo uso privado, por lo que se prohibe su reproducción o retransmisión, así como su uso para fines comerciales.

© LaCuerda.net · Aviso Legal · Privacidad