Acordes de Guitarra » R »Raul » Sueño su Boca (Tab)

Sueño su Boca
Raul

Letras, Acordes y Tabs para Guitarra, Bajo y Ukulele

  • Am         
    |----------------------------|---------------------------|
    |---------1---3--1----0--1---|--------1---3-1---0--------|
    |-------2---2------2---------|-------2--2-----2----------|
    |----------------------------|---------------------------|
    |----0-----------------------|-----0---------------------|
    |----------------------------|---------------------------|
    
    MI
     
    |----------------------------|---------------------------|
    |---------------1--0---------|--------------1--0---------|
    |----------1------------1----|----------1-----------2----|
    |--------2---2--------2------|--------2---2-------2------|
    |----------------------------|---------------------------|
    |-----0----------------------|-----0---------------------|
    
    ======================================================
    
    LAm
    
  • intro
    --------------------------------------------------------------------------
    --0-1---3-1---0-1---0-1---3-1---0-1----------1-0----0--------1-0------0---
    2-----2-----2-----2-----2-----2----------1-------12------1--------1-2-----
    -------------------------------------2-2---2-----------2---2--------------
    --------------------------------------------------------------------------
    --------------------------------------------------------------------------
    letra
    --------------------------------------------------------------------------
    ---0-1-0-1-0-1-1-----0-1-0-1-0-1-1--3-1-0---0---0-0------0---0---0-0------
    -2----------------2-----------------------2---2------1-2---2---2----------
    --------------------------------------------------------------------------
    --------------------------------------------------------------------------
    --------------------------------------------------------------------------
    
    ------------------------------------------------------------------------
  • +
    ¡Colabora con nosotros!
    Envíanos tu versión de esta canción



Video de Sueño su Boca
[]




[Sueño su Boca chords][Sueño su Boca cifra]
© LaCuerda.net · aviso legal · privacidad · es · en · pt · contacto