Acordes de Guitarra » R »Rata Blanca » La cancion del guerrero (Tab)

La cancion del guerrero
Rata Blanca

Letras, Acordes y Tabs para Guitarra, Bajo y Ukulele

  • e|-----------------------------------------|
    B|-----------------------------------------| |
    G|-----4-2-------2-4-2-----------4-2----2-4| |
    D|-----4-2-4-----2-4-2-4-2-4-----4-2-4--2-4| |
    A|---------4-----------4-2-4---------4-----| |
    E|-2-2-------2-2-------------2-2-------2---| |
       . .       . .             . .       .   |  > Repetir
    e|-----------------------------------------| |
    B|-----------------------------------------| |
    G|-----4-2-------2-4-2-----------4-2----2--| |
    D|-----4-2-4-----2-4-2-4-2-4-----4-2-4--2-2| |
    A|---------4-----------4-2-4---------4----2| |
    E|-2-2-------2-2-------------2-2-------2---|/
       . .       . .             . .       .
    
    F#5
    Todos me reprochan lo que hice
                            D5 A5 E5
    Pero nadie dice una verdad aquí.
    F#5
    
  • B:estirar.              /:deslizar.
    p:ligado descendente.   r:estirar y volver.
    .:Palm mute. 
    
    
    intro: Hacerlo tres veces
      . .       . .                . .            
    |-------------------------------------------------|
    |-------------------(-rapido-)--------------------|
    |-----4-2-------2-4--2------------4-2----2--4-----|
    |-----4-2-4-----2-4--2-4-2-4------4-2-4--2--4-----|
    |---------4------------4-2-4----------4-----------|
    |-2-2-------2-2----------------2-2----------------|
      . .       . .                . .                                 
    |--------------------------------------------------|                
    |-------------------(-rapido-)---------------------|                
    |-----4-2-------2-4--2------------4-2----2---------|                
    |-----4-2-4-----2-4--2-4-2-4------4-2-4--2--2------|                   
    |---------4------------4-2-4----------4-----2------|                 
    |-2-2-------2-2----------------2-2-----------------|                
    
  •    F#m                             A B
    e|-------------------------------------|\
    B|-------------------------------------| |
    G|-----4-2-----2-4-2---------4-2---2-4-| |
    D|-4-4-4-2-4-4-2-4-2-4-2-4-4-4-2-4-2-4-| |
    A|-4-4-----4-4-------4-2-4-4-----4-----| |
    E|-------------------------------------| |
       ^ ^       ^             ^             |
    \P.M..................................|  |
                                             |
       F#m                             A E   > Repetir
    e|-------------------------------------| | 3 veces
    B|-------------------------------------| |
    G|-----4-2-----2-4-2---------4-2---2---| |
    D|-4-4-4-2-4-4-2-4-2-4-2-4-4-4-2-4-2-2-| |
    A|-4-4-----4-4-------4-2-4-4-----4---2-| |
    E|-------------------------------------| |
       ^ ^       ^             ^             |
    P.M...................................|  /
    
    
  • +
    ¡Colabora con nosotros!
    Envíanos tu versión de esta canción

Letra de La cancion del guerrero
. . . . . . . | > Repetir
. . . . . . .
Todos me reprochan lo que hice
Pero nadie dice una verdad aquí.
Piensan que la vida es eterna
creen tener todo pero no es así...
Y hace falta, valor para poder continuar
Cargando este peso en soledad.
Mundo ciego necio hombre tonto
Cuando abras los ojos muy tarde será.
Estoy esperando la revancha
no podrán vencerme soy la realidad...
La batalla será digna como la verdad
He luchado siempre hasta el final.
Como el trueno regresó,
Vieja espada brilla al sol.
De otros tiempos va a venir,
Con su magia a combatir.
Todos me decían no se puede
estaba muy solo en una tempestad
sumergido en lodo todo el tiempo
pude ver sus ojos pude ver el mal...
Ahora puedo gritar, no lo quiero callar
He luchado siempre hasta el final
El solo no lo saque yo asiq fijense y hagan correcciones




[La cancion del guerrero chords][La cancion del guerrero cifra]
© LaCuerda.net · aviso legal · privacidad · es · en · pt · contacto