Acordes de Guitarra » R »Ram Nasta » Una Canción (Tab)

Una Canción
Ram Nasta

Letras, Acordes y Tabs para Guitarra, Bajo y Ukulele

  • Capo en traste 1 y 6ta cuerda afinada en RE
    
              RIFF 1                RIFF 2                RIFF 3
    1|-----------5---------|-----------0---------|-----------5---------|
    2|-----2/3---------3---|-----2/3---------3---|-----2/3---------3---|
    3|---2-----------2---2-|---2-----------2---2-|---2-----------2---2-|
    4|---------4---4-------|---------4---4-------|---------0---0-------|
    5|---------------------|---------------------|---------------------|
    6|-0-------------------|-2-------------------|-4-------------------|
    
          RIFF 4          RIFF 5
    1|---------7---5-|---------3---2-|
    2|-----0---------|-----0---------|
    3|---0-----------|---0-----------|
    4|-----------4---|-----------0---|
    5|---------------|---------------|
    6|-5-----5-------|-5-----5-------|
    
                      RIFF 6
    1|-----10---9-|-----7---5-|-----3---2---0-|
    2|------------|-----------|---------------|
    3|---9----9---|---7---7---|---2---2---2---|
    4|-0----------|-0---------|-0-------------|
    5|------------|-----------|-----------
  • +
    ¡Colabora con nosotros!
    Envíanos tu versión de esta canción

Letra de Una Canción
Y hay más que una forma de dibujar, este bosque inmenso
Y hay más que una forma de cantar, este ritmo intenso
Y hay más que una forma de contar, este curioso cuento
Y hay más que una forma de soñar, en este universo
1 2 3 4 5
Y hay más que una forma de dibujar, este bosque inmenso
1 2 3 4 5 6
Y hay más que una forma de soñar, en este universo, en este universo
6




[Una Canción chords][Una Canción cifra]
© LaCuerda.net · aviso legal · privacidad · es · en · pt · contacto
DINAMICO