Acordes de Guitarra » R »Raly Barrionuevo » Chacarera del Exilio (Tab)

Chacarera del Exilio
Raly Barrionuevo

Letras, Notas, Punteos, Tablaturas y Acordes de Guitarra (Tabs & Chords)

  • Letra y Acordes
    Intro: SIm-FA#7
    
    
    (1)|-----7--9-----12--10--9--7--------------------|
    (2)|----------------------------------------------|
    (3)|---7------9---12--10--9--7--------------------|    x2
    (4)|----------------------------------------------|
    (5)|----------------------------------------------|
    (6)|----------------------------------------------|
    
    
    (1)|-----7---9----12----6--7----------------------|
    (2)|----------------------------------------------|
    (3)|---7---9---12-------6--7----------------------|
    (4)|----------------------------------------------|
    (5)|----------------------------------------------|
    (6)|----------------------------------------------|
    
    
    
    
  • Letra y Acordes
    Intro: SIm-FA#7
    
    
     SIm
    Vuelve a cantar el coyuyo
    
    despues de un año sin huella
     MIm                SOL 
    vuelve a renacer el grito
     RE            FA#7    SIm
    marron de la chacarera
    
    Es el hombre americano
    corazón en la batalla
    rebelion y abrazo fuerte
    de parche y de madrugada
    
    Soy latino de la danza
    de GUEVARA y dictadores
    de quebracho y cordillera
    
  • +
    ¡Colabora con nosotros!
    Envíanos tu versión de esta canción

Letra de Chacarera del Exilio
Vuelve a cantar el coyuyo
despues de un año sin huella
vuelve a renacer el grito
marron de la chacarera
Es el hombre americano
corazón en la batalla
rebelion y abrazo fuerte
de parche y de madrugada
Soy latino de la danza
de GUEVARA y dictadores
de quebracho y cordillera
de exiliados y cantores
Chacarera del exilio
trashumante es mi destino
y esta copla que me lleva
descalzo por los caminos
Huele a pueblo el caminante
que ha desgranado el camino
sabe a lucha la palabra
que no conoce el olvido
Tengo una mujer de fuego
navegando en mis nostalgias
tengo una mujer de Greda
me despierta en las mañanas
Cinco siglos de silencio
genocidio de una raza
y es la pachamama lumbre
que enciende nuestra esperanza.



© LaCuerda.net · Aviso Legal · Privacidad