Acordes de Guitarra » R »Rabeat » Tiempo (Tab)

Tiempo
Rabeat

Letras, Acordes y Tabs para Guitarra, Bajo y Ukulele

  •          SOL          LAM7          SOL
    E |-------------|-------------|-------------|-0-2---------|
    B |-0--0--0--0--|1--1--1--1p2-|-3--3--------|-------------|
    G |--0--0--0--0-|-0--0--0----0|--0---0------|-------------|
    D |-------------|-------------|-------------|-------------|
    A |-------------|0--0--0--0---|-2--2--------|-------------|
    E |-3--3--3--3--|-------------|-------------|-------------|
    
    |ESTROFA|
    
    E |-3--3--------|-2--2--------|-0--0--------|-2--0-2------|
    B |--0--0-------|--0--0-------|--0--0-------|--0----------|
    G |-------------|-------------|-------------|-------------|
    D |-------------|-0-----------|-------------|-0-----------|
    A |-------------|-------------|-3-----------|-------------|
    E |-0-----------|-------------|-------------|-------------|
    
    Este punteo se repite toda la cancion hasta el OUTRO
    
    Rasgueando, la vuelta es Em-D-C-D. Medio tiempo en cada acorde.
    
  • +
    ¡Colabora con nosotros!
    Envíanos tu versión de esta canción

Letra de Tiempo
|ESTROFA|
Este punteo se repite toda la cancion hasta el OUTRO
Rasgueando, la vuelta es Em-D-C-D. Medio tiempo en cada acorde.
RABEAT
Tiempo algo divino, que fluye como sombra tras las luces
Y sigue dibujando mi destino con sus agujas,
va desangrando mi alma y si te digo (X2)
Amor con amor se paga, así como jamás se apaga la esperanza
de un infinito en pociones, canciones llenas de rabia
y la necesidad de tener fe, sabiendo que no sé que pasara mañana.
El mar espejo del cielo reflejo vos sin palabras,
Escucho gotas del viento combate solo el fantasma
La paradoja sin fin, el rey de todos los días,
La melodía son el blon que rehabilitan mi vida,
ding dong, mi Mr Hyde no es de London
Pero soy capataz para ese sol tan redondo
Hoy la cuestión es que no soy pacifista
y parece estar de moda poner la otra mejilla.
UNDERDANN
El mayor privilegió no tiene valor ni precios
por ahora el cora no colabora con el comercio,
Pensamientos necios materializan sonrisas,
pero la felicidad sin interés se inmortaliza
vivimos rodeados de flechas en las eses
el mundo está nublado y el sol ya no se nota
el amor está en paro y el odio se fortalece,
pero un te amo no se paga en cuotas a veces,
de las caricias muertas aprendí a quererte
no poseo mucha money pero tengo el alma fuerte,
pregúntale a la suerte hace cuanto que no nos vemos
y como hago para ser tan feliz sin conocernos
un abrazo, un te extraño, un te quiero,
no se compra ni se vende los que si son sinceros
quien sea espiritual o quien sea material
todos cumplimos un tiempo y terminamos igual.
|CORO|
Tiempo algo divino, que fluye como sombra tras las luces
Y sigue dibujando mi destino con sus agujas,
va desangrando mi alma y si te digo..
|OUTRO CON SEGUNDA GUITARRA|




[Tiempo chords][Tiempo cifra]
© LaCuerda.net · aviso legal · privacidad · es · en · pt · contacto
DINAMICO