Acordes de Guitarra » Q »Quintavani » Tanto (Tab)

Tanto
Quintavani

Letras, Acordes y Tabs para Guitarra, Bajo y Ukulele

  •          G#            C#m         G#            C#m
    E|-------------------------|-------------------------|
    B|-------------------------|-------------------------|
    G|-------------5-5-5---6---|-------------5-5-5---6---|
    D|-6--6--6-6-6-------6---6-|-6--6--6-6-6-------6---6-|
    A|-------------------------|-------------------------|
    E|-------------------------|-------------------------|
    
             G#            C#m         G#            C#m
    E|-------------------------|-------------------------|
    B|-------------------------|-------------------------|
    G|-------------5-5-5---6---|-------------5-5-5---6---|
    D|-6--6--6-6-6-------6---6-|-6--6--6-6-6-------6-----|
    A|-------------------------|-------------------------|
    E|-------------------------|-------------------------|
    
    
    ESTROFA I
    
                       F#m
    
  • +
    ¡Colabora con nosotros!
    Envíanos tu versión de esta canción

Letra de Tanto
ESTROFA I
Estoy solo en el olvido
Ya no tengo tu cariño
Estoy solo y no me importa
Me trataste como a un niño
Con el viento a tu favor
Me estrellaste contra el sol
Me inyectaste ese veneno y te fallo
Tanto me entregaba a tu encanto,
El tiempo derramado en ti
Y en silencio aprendí a ser feliz
Riff
ESTROFA II
Hace rato que camino
como un loco sin sentido
no me sirve el corazón
si son tuyos mis latidos
se ha nublado la canción
que hoy me vino a acompañar
mi guitarra muere por tu vanidad
Tanto me entregaba a tu encanto,
El tiempo derramado en ti
Y en silencio aprendí a ser feliz
Riff
ESTROFA III
Un Viejo lobo me dijo
que en cuestiones del amor
no había locura mas grande
que entregar el corazón
una copas apagaron
el incendio intencional
tu me quemaste sin piedad sin avisar
Tanto me entregaba a tu encanto,
El tiempo derramado en ti
Y en silencio aprendí a ser feliz
Tanto me entregaba a tu encanto,
El tiempo derramado en ti
Y en silencio
Aprendí a ser feliiiiiiiiiiz
Aprendí a ser feliiiiiiiiiiz
Aprendí a ser feliiiiiiiiiiz
Aprendí a ser feliiiiiiiiiiz
espero que les guste esta cancion que es muy vacana,
agradecimientos al bajista andres portilla por sacar
la tonalidad de esta cancion.

Video de Tanto
[]




[Tanto chords][Tanto cifra]
© LaCuerda.net · aviso legal · privacidad · es · en · pt · contacto