Acordes de Guitarra » Q »Quilapayun » Te recuerdo Amanda (Tab)

Te recuerdo Amanda
Quilapayun

Letras, Acordes y Tabs para Guitarra, Bajo y Ukulele

  •           RE      (VI-0)fa#m
    A) Te recuerdo, Amanda
    
       LA calle mojada
            SOL 
       Corriendo a la f√°brica
        DO               RE6
       Donde trabaja Manuel.
    
              RE      (VI-0)fa#m
    A) LA sonrisa ancha
    
       La lluvia en el pelo
             SOL 
       No importaba nada
       DO                     RE6
       Ibas a encontrarte con él
    
       Con él, con él, con él.
    
    
  •           SOL7+*          LA*         SOL6          LA*
    
    E||--7---7---7---7-----|--0---0--------0---0-------0---0----|
    B||----7-------7---7h5-|--------5h3----------3h5---------5--|
    G||-0------0-----------|----6------------4-----------6------|
    D||--------------------|-7-----------5-----------7----------|
    A||--------------------|------------------------------------|
    E||--------------------|------------------------------------|
    
     Parte A:
               RE 
    |--2---2---2----2---2---2--------|
    |--------3------------3----------|
    |----2------------2--------------|
    |-0-----------0------------------|
    |--------------------------------|
    |--------------------------------|
      Te recuerdo Amanda
    
            FA#m.
    
  • +
    ¬°Colabora con nosotros!
    Envíanos tu versión de esta canción

Letra de Te recuerdo Amanda
A) Te recuerdo, Amanda
Corriendo a la f√°brica
Donde trabaja Manuel.
La lluvia en el pelo
No importaba nada
Ibas a encontrarte con él
Con él, con él, con él.
B) Con él
Son cinco minutos
La vida es eterna
en cinco minutos
LA7+-SOL7+
Suena la sirena
LA7+-SOL7+
De vuelta al trabajo
Y tu caminando
Lo iluminas todo
LA7+-SOL7+
Los cinco minutos
Te hacen florecer.
A) Te recuerdo, Amanda...
B) Con él
Que partió a la sierra
Que nunca hizo da√Īo
Que partió a la sierra
Y en cinco minutos
Quedó destrozado
Suena la sirena
De vuelta al trabajo
Muchos no volvieron
Tampoco Manuel.
A) Te recuerdo, Amanda
Corriendo a la f√°brica
Donde trabajaba Manuel.




[Te recuerdo Amanda chords][Te recuerdo Amanda cifra]
© LaCuerda.net · aviso legal · privacidad · es · en · pt · contacto