Acordes de Guitarra » Q »Quique González » Salitre (Tab)
  • Tablatura
    |---------------------------------
    |---------------------------------
    |-1h2-x-----1-x-----2--x--2-x-1-x-
    |-2---x---2---x---4----x--4-x-2-x-  x4
    |-0---x-0-----x-0------x--0-x-0-x-   las x = golpe sobre las cuerdas
    |---------------------------------   en el resto de la canción también
    
    Estrofas (todas iguales)
      Te acariciaba el viento de poniente te llevó a la arena bañada en salitre
    |------------------------------------------------------------------------------
    |------------------------------------------------------------------------------
    |-1h2----------1-----------2--------------1-----2-----------1-----2--------2--1
    |-2----------2-----------4--------------2-----2-----------2-----4----------4--2
    |-0--------0-----------0--------------0-----0-----------0-----0------------0--0
    |------------------------------------------------------------------------------
    (se repite)
    
    Te acariciaba un marinero en tierra pero esta vez no era yo
    
    Te conocí en Conil de la Frontera nunca es primavera donde tu creciste
    
  • Tablatura
                   Amaj7 A     Amaj7         Aadd6     Amaj7add9
                    X         X         X         X    X    X
    E |------------ ----|---- ---- ---- ----|---- ---- ---- ----|
    B |------------ ----|---- ---- ---- ----|---- ---- --0- ----|
    G |------------ --1-|h2-- ---- --1- ----|--2- --2- --1- --1-|
    D |------------ --2-|---- ---- 2--- --2-|h4-- --4- ---- --2-|
    A |------------ --0-|---- --0- ---- --0-|---- --0- --0- --0-|
    E |------------ ----|---- ---- ---- ----|---- ---- ---- ----|
                        |--> Repetir desde aquí
    
    
    
     atacando directamente el Add6, es decir, no suena el 2.
    
     En la estrofa alterna la de arriba con lo siguiente (Parte B):
    
    
                   Amaj7 A     Amaj7         Aadd6     Amaj7add9
                    X         X         X         X         X
    E |------------ ----|---- ---- ---- ----|---- ---- ---- ----|
    
  • +
    ¡Colabora con nosotros!
    Envíanos tu versión de esta canción

Letra de Salitre
Estrofas (todas iguales)
Te acariciaba el viento de poniente te llevó a la arena bañada en salitre
(se repite)
Te acariciaba un marinero en tierra pero esta vez no era yo
Te conocí en Conil de la Frontera nunca es primavera donde tu creciste
Sigues teniendo carita de pena, pero no me mires con tus ojos tristes
uoo Bañada en salitre
Flota en la memoria de los días grises
uoo Fumo en la ventana
Veo tu silueta sobre el arrecife
Algunas flores crecen en las dunas
sube la marea y se hacen invisibles
Algunas duermen a la luz de la luna
persiguiendo sueños imposibles
uoo Bañada en salitre
Flota en la memoria de los días grises
uoo Fumo en la ventana
Veo tu silueta sobre el arrecife
Y ahora
tendré que salir a buscarme alguien que me arranque de cuajo la pena
De alguna manera tendré que olvidarte
Tengo que olvidarte de alguna manera
uoo Bañada en salitre
Flota en la memoria de los días grises
uoo Fumo en la ventana
Veo tu silueta sobre el arrecife
Las tablaturas están escritas para encajar con la frase de encima
y que se vea cómo va la guitarra con respecto a la letra,
el ritmo real es más constante.
El acompañamiento que suena por detrás casi toda la canción:



© LaCuerda.net · aviso legal · privacidad · contacto
DINAMICO