Acordes de Guitarra » Q »Quetzal » Bolivia (Tab)

Bolivia
Quetzal

Letras, Acordes y Tabs para Guitarra, Bajo y Ukulele

  •          A--0-3---0-3---0-3---- |---------------------------0-|
             D------2-----2-----2-- |---------------------------2-|
             G--------------------- |---------------------------2-|
             B--------------------- |---------------------------1-|
             e--------------------- |--8-7-7-5-3-5-3-3-0--10-8--0-|
    
    
    
                  RIFF 1 (BAJEO RAPIDO)    riff2 (CON LA SEGUNDA GUITARRA)
             E---------------------------- |-----------------|
             A--------3-2-0-2-3-------3--- |-----------------|
             D--3-2-0-----------0-2-0---0- |-----------------|
             G---------------------------- |-----------------|
             B---------------------------- |--10--9-8-7------|
             e---------------------------- |-----------------|
    
    INTRO
    
                                                  Am
    Ser tu bravura, ser la fuerza y juventud 
    
  • +
    ¡Colabora con nosotros!
    Envíanos tu versión de esta canción

Letra de Bolivia
RIFF 1 (BAJEO RAPIDO) riff2 (CON LA SEGUNDA GUITARRA)
Ser tu bravura, ser la fuerza y juventud
de tu letardo mudo la voz la inquietud
Bolivia haa ha
Quiero pegar un grito de liberación
despues de un siglo y medio de humillación
Bolivia haa ha
Quiero pegar un grito de liberación
despues de un siglo y medio de humillación
ACOMPAÑAMIENTO


RIFF1 (RAPIDO)
RIFF1 (RAPIDO)
Quiero tengan tus días destino mejor
y el futuro sonria prometedor
Bolivia ha ha
En la falda de tus cerros haré mi hogar
donde felices los niños iran a jugar
Bolivia ha ha
En la falda de tus cerros haré mi hogar
donde felices los niños iran a jugar
PURO ACOMPAÑAMIENTO
Bolivia ha ha.


ACORDES UN POCO RAROS PARA MI
LA CANCIÓN ES BUENA PERO TAL VEZ TENGA ALGUNOS ERRORES, SI ALGUIEN TIENE ALGUNA OTRA CANCIÓN DE ESTE GRUPO POR FAVOR MANDELA
POR QUE AQUI NO HAY, PERO ESTAN CHIDAS
\_ \_ \_ \_ \_ \_ \_ \_ \_ \_ \_ \_ \_ \_
\_\_\_\_\_\_ \_\_\_
\_ \_ \_ \_
\_ \_ \_
\_\_\_\_\_ \_
\_ \_
\_ \_
\_ \_ \_
\_ \_ \_\_\_ \_


\_ \_ \_ \_ \_ \_ \_ \_ \_ \_ \_ \_ \_ \_ \_




[Bolivia chords][Bolivia cifra]
© LaCuerda.net · aviso legal · privacidad · es · en · pt · contacto
DINAMICO