Acordes de Guitarra » Q »Q' Lokura » Placer y olvido (Tab)

Placer y olvido
Q' Lokura

Letras, Acordes y Tabs para Guitarra, Bajo y Ukulele

  •         Am
    Estamos aquí en la misma cama
                     Dm
    gracias por venir, y calmar mis ganas
                    G
    la pasé muy bien creo que soñaba
                  E7
    en volver a verte para comprobar.
    
                 Am7
    Que ya no te amo como lo hice un día,
                   Dm7
    gracias a tu engaño y a tu cobardía hoy
      G
    solo me sirves como fantasía,
      E                     E7
    te agradezco la lección.
    
        Dm7
    Ahora vete,
    
  •         Am                              F                  E
    E|----------------|------------------|---------------|-------------------
    B|-----------1--0-|-------------1--0-|----------1--0-|-------------------
    G|--------2-------|----------0-------|-------2-------|----------2--1-----
    D|-----2----------|-------2----------|----3----------|-------2--------2--
    A|--0-------------|-0----------------|---------------|----2--------------
    E|----------------|----3-------------|-1-------------|-0-----------------
    
            Am                              F          E
    E|----------------|------------------|---------------|-0---
    B|-----------1--0-|-------------1--0-|----------1--0-|-0---
    G|--------2-------|----------0-------|-------2-------|-1---
    D|-----2----------|-------2----------|----3----------|-2---
    A|--0-------------|-0----------------|---------------|-2---
    E|----------------|----3-------------|-1-------------|-0---
    
    Verso:
            Am
    Estamos aquí en la misma cama
                     Dm
    
  •         Am
    Estamos aquí en la misma cama
                         Dm
    gracias por venir, y calmar mis ganas
                  G
    la pasé muy bien creo que soñaba
                  E7
    en volver a verte para comprobar,
    
                 Am
    que ya no te amo como lo hice un día,
                   Dm
    gracias a tu engaño y a tu cobardía hoy
      G
    solo me sirves como fantasía ,
      E7
    te agradezco la lección.
    
        Dm
    Ahora vete,
    
  • +
    ¡Colabora con nosotros!
    Envíanos tu versión de esta canción

Letra de Placer y olvido
Estamos aquí en la misma cama
gracias por venir, y calmar mis ganas
la pasé muy bien creo que soñaba
en volver a verte para comprobar,
que ya no te amo como lo hice un día,
gracias a tu engaño y a tu cobardía hoy
te agradezco la lección.
Ahora vete,
recoge tu ropa del piso y salte de mi cama,
te llamo cuando sea mi piel la que tenga ganas
de aprovechar tu cuerpo y satisfacerme,
no te sorprendas
que no te pida que me abraces y duermas conmigo,
ya no soy el mismo idiota que buscaba abrigo,
ahora solo te me antojas
para placer y olvido.
Saludos desde Argentina, Catamarca. Ismael vega.




[Placer y olvido chords][Placer y olvido cifra]
© LaCuerda.net · aviso legal · privacidad · es · en · pt · contacto